ISO-10303-21;
HEADER;
/* Generated by software containing ST-Developer
 * from STEP Tools, Inc. (www.steptools.com) 
 */

FILE_DESCRIPTION(
/* description */ ('Ochrann\X\FD a t\X2\011B\X0\sn\X\EDc\X\ED profil'),

/* implementation_level */ '2;1');

FILE_NAME(
/* name */ 'C:\\Vault_pracovn\X\ED\\Zak\X\E1zky\\Kal\X\E1b_pokus\\7000
29.stp',
/* time_stamp */ '2014-08-19T08:49:16+02:00',
/* author */ ('jank'),
/* organization */ (''),
/* preprocessor_version */ 'ST-DEVELOPER v15.2',
/* originating_system */ 'Autodesk Inventor 2014',
/* authorisation */ '');

FILE_SCHEMA (('CONFIG_CONTROL_DESIGN'));
ENDSEC;

DATA;
#10=SHAPE_REPRESENTATION_RELATIONSHIP('SRR','None',#589,#11);
#11=ADVANCED_BREP_SHAPE_REPRESENTATION($,(#358),#580);
#12=STYLED_ITEM($,(#597),#358);
#13=FACE_BOUND($,#64,.T.);
#14=FACE_BOUND($,#65,.T.);
#15=FACE_BOUND($,#67,.T.);
#16=FACE_BOUND($,#68,.T.);
#17=CIRCLE($,#363,1.5);
#18=CIRCLE($,#364,1.5);
#19=CIRCLE($,#370,9.6);
#20=CIRCLE($,#371,9.6);
#21=CIRCLE($,#373,8.1);
#22=CIRCLE($,#374,8.1);
#23=CIRCLE($,#377,1.5);
#24=CIRCLE($,#378,1.5);
#25=CYLINDRICAL_SURFACE($,#362,1.5);
#26=CYLINDRICAL_SURFACE($,#369,9.6);
#27=CYLINDRICAL_SURFACE($,#372,8.1);
#28=CYLINDRICAL_SURFACE($,#376,1.5);
#29=FACE_OUTER_BOUND($,#47,.T.);
#30=FACE_OUTER_BOUND($,#48,.T.);
#31=FACE_OUTER_BOUND($,#49,.T.);
#32=FACE_OUTER_BOUND($,#50,.T.);
#33=FACE_OUTER_BOUND($,#51,.T.);
#34=FACE_OUTER_BOUND($,#52,.T.);
#35=FACE_OUTER_BOUND($,#53,.T.);
#36=FACE_OUTER_BOUND($,#54,.T.);
#37=FACE_OUTER_BOUND($,#55,.T.);
#38=FACE_OUTER_BOUND($,#56,.T.);
#39=FACE_OUTER_BOUND($,#57,.T.);
#40=FACE_OUTER_BOUND($,#58,.T.);
#41=FACE_OUTER_BOUND($,#59,.T.);
#42=FACE_OUTER_BOUND($,#60,.T.);
#43=FACE_OUTER_BOUND($,#61,.T.);
#44=FACE_OUTER_BOUND($,#62,.T.);
#45=FACE_OUTER_BOUND($,#63,.T.);
#46=FACE_OUTER_BOUND($,#66,.T.);
#47=EDGE_LOOP($,(#229,#230,#231,#232));
#48=EDGE_LOOP($,(#233,#234,#235,#236));
#49=EDGE_LOOP($,(#237,#238,#239,#240));
#50=EDGE_LOOP($,(#241,#242,#243,#244));
#51=EDGE_LOOP($,(#245,#246,#247,#248));
#52=EDGE_LOOP($,(#249,#250,#251,#252));
#53=EDGE_LOOP($,(#253,#254,#255,#256));
#54=EDGE_LOOP($,(#257,#258,#259,#260));
#55=EDGE_LOOP($,(#261,#262,#263,#264));
#56=EDGE_LOOP($,(#265,#266,#267,#268));
#57=EDGE_LOOP($,(#269,#270,#271,#272));
#58=EDGE_LOOP($,(#273,#274,#275,#276));
#59=EDGE_LOOP($,(#277,#278,#279,#280));
#60=EDGE_LOOP($,(#281,#282,#283,#284));
#61=EDGE_LOOP($,(#285,#286,#287,#288));
#62=EDGE_LOOP($,(#289,#290,#291,#292));
#63=EDGE_LOOP($,(#293,#294,#295,#296,#297,#298,#299,#300,#301,#302));
#64=EDGE_LOOP($,(#303,#304,#305,#306));
#65=EDGE_LOOP($,(#307,#308));
#66=EDGE_LOOP($,(#309,#310,#311,#312,#313,#314,#315,#316,#317,#318));
#67=EDGE_LOOP($,(#319,#320,#321,#322));
#68=EDGE_LOOP($,(#323,#324));
#69=LINE($,#484,#109);
#70=LINE($,#486,#110);
#71=LINE($,#488,#111);
#72=LINE($,#489,#112);
#73=LINE($,#493,#113);
#74=LINE($,#495,#114);
#75=LINE($,#497,#115);
#76=LINE($,#498,#116);
#77=LINE($,#503,#117);
#78=LINE($,#508,#118);
#79=LINE($,#510,#119);
#80=LINE($,#512,#120);
#81=LINE($,#513,#121);
#82=LINE($,#516,#122);
#83=LINE($,#518,#123);
#84=LINE($,#519,#124);
#85=LINE($,#522,#125);
#86=LINE($,#524,#126);
#87=LINE($,#525,#127);
#88=LINE($,#528,#128);
#89=LINE($,#530,#129);
#90=LINE($,#531,#130);
#91=LINE($,#536,#131);
#92=LINE($,#543,#132);
#93=LINE($,#545,#133);
#94=LINE($,#546,#134);
#95=LINE($,#552,#135);
#96=LINE($,#554,#136);
#97=LINE($,#555,#137);
#98=LINE($,#558,#138);
#99=LINE($,#560,#139);
#100=LINE($,#561,#140);
#101=LINE($,#564,#141);
#102=LINE($,#566,#142);
#103=LINE($,#567,#143);
#104=LINE($,#570,#144);
#105=LINE($,#572,#145);
#106=LINE($,#573,#146);
#107=LINE($,#575,#147);
#108=LINE($,#576,#148);
#109=VECTOR($,#390,14.7037410205702);
#110=VECTOR($,#391,100.);
#111=VECTOR($,#392,14.7037410205702);
#112=VECTOR($,#393,100.);
#113=VECTOR($,#396,1.5);
#114=VECTOR($,#397,100.);
#115=VECTOR($,#398,1.5);
#116=VECTOR($,#399,100.);
#117=VECTOR($,#404,100.);
#118=VECTOR($,#409,4.91003253449466);
#119=VECTOR($,#410,100.);
#120=VECTOR($,#411,4.91003253449466);
#121=VECTOR($,#412,100.);
#122=VECTOR($,#415,1.45000400000001);
#123=VECTOR($,#416,100.);
#124=VECTOR($,#417,1.45000400000001);
#125=VECTOR($,#420,2.5);
#126=VECTOR($,#421,100.);
#127=VECTOR($,#422,2.5);
#128=VECTOR($,#425,6.69737205646703);
#129=VECTOR($,#426,100.);
#130=VECTOR($,#427,6.69737205646703);
#131=VECTOR($,#432,100.);
#132=VECTOR($,#443,1.5);
#133=VECTOR($,#444,100.);
#134=VECTOR($,#445,1.5);
#135=VECTOR($,#454,6.69737205646703);
#136=VECTOR($,#455,100.);
#137=VECTOR($,#456,6.69737205646703);
#138=VECTOR($,#459,2.5);
#139=VECTOR($,#460,100.);
#140=VECTOR($,#461,2.5);
#141=VECTOR($,#464,1.45000400000001);
#142=VECTOR($,#465,100.);
#143=VECTOR($,#466,1.45000400000001);
#144=VECTOR($,#469,4.91003253449466);
#145=VECTOR($,#470,100.);
#146=VECTOR($,#471,4.91003253449466);
#147=VECTOR($,#474,4.57142799999997);
#148=VECTOR($,#475,4.57142799999997);
#149=VERTEX_POINT($,#482);
#150=VERTEX_POINT($,#483);
#151=VERTEX_POINT($,#485);
#152=VERTEX_POINT($,#487);
#153=VERTEX_POINT($,#491);
#154=VERTEX_POINT($,#492);
#155=VERTEX_POINT($,#494);
#156=VERTEX_POINT($,#496);
#157=VERTEX_POINT($,#500);
#158=VERTEX_POINT($,#502);
#159=VERTEX_POINT($,#506);
#160=VERTEX_POINT($,#507);
#161=VERTEX_POINT($,#509);
#162=VERTEX_POINT($,#511);
#163=VERTEX_POINT($,#515);
#164=VERTEX_POINT($,#517);
#165=VERTEX_POINT($,#521);
#166=VERTEX_POINT($,#523);
#167=VERTEX_POINT($,#527);
#168=VERTEX_POINT($,#529);
#169=VERTEX_POINT($,#533);
#170=VERTEX_POINT($,#535);
#171=VERTEX_POINT($,#542);
#172=VERTEX_POINT($,#544);
#173=VERTEX_POINT($,#551);
#174=VERTEX_POINT($,#553);
#175=VERTEX_POINT($,#557);
#176=VERTEX_POINT($,#559);
#177=VERTEX_POINT($,#563);
#178=VERTEX_POINT($,#565);
#179=VERTEX_POINT($,#569);
#180=VERTEX_POINT($,#571);
#181=EDGE_CURVE($,#149,#150,#69,.T.);
#182=EDGE_CURVE($,#151,#150,#70,.T.);
#183=EDGE_CURVE($,#152,#151,#71,.T.);
#184=EDGE_CURVE($,#152,#149,#72,.T.);
#185=EDGE_CURVE($,#153,#154,#73,.T.);
#186=EDGE_CURVE($,#155,#154,#74,.T.);
#187=EDGE_CURVE($,#156,#155,#75,.T.);
#188=EDGE_CURVE($,#156,#153,#76,.T.);
#189=EDGE_CURVE($,#154,#157,#17,.T.);
#190=EDGE_CURVE($,#158,#157,#77,.T.);
#191=EDGE_CURVE($,#155,#158,#18,.T.);
#192=EDGE_CURVE($,#159,#160,#78,.T.);
#193=EDGE_CURVE($,#161,#160,#79,.T.);
#194=EDGE_CURVE($,#162,#161,#80,.T.);
#195=EDGE_CURVE($,#162,#159,#81,.T.);
#196=EDGE_CURVE($,#160,#163,#82,.T.);
#197=EDGE_CURVE($,#164,#163,#83,.T.);
#198=EDGE_CURVE($,#161,#164,#84,.T.);
#199=EDGE_CURVE($,#163,#165,#85,.T.);
#200=EDGE_CURVE($,#166,#165,#86,.T.);
#201=EDGE_CURVE($,#164,#166,#87,.T.);
#202=EDGE_CURVE($,#165,#167,#88,.T.);
#203=EDGE_CURVE($,#168,#167,#89,.T.);
#204=EDGE_CURVE($,#166,#168,#90,.T.);
#205=EDGE_CURVE($,#167,#169,#19,.T.);
#206=EDGE_CURVE($,#170,#169,#91,.T.);
#207=EDGE_CURVE($,#168,#170,#20,.T.);
#208=EDGE_CURVE($,#150,#149,#21,.T.);
#209=EDGE_CURVE($,#151,#152,#22,.T.);
#210=EDGE_CURVE($,#157,#171,#92,.T.);
#211=EDGE_CURVE($,#172,#171,#93,.T.);
#212=EDGE_CURVE($,#158,#172,#94,.T.);
#213=EDGE_CURVE($,#171,#153,#23,.T.);
#214=EDGE_CURVE($,#172,#156,#24,.T.);
#215=EDGE_CURVE($,#169,#173,#95,.T.);
#216=EDGE_CURVE($,#174,#173,#96,.T.);
#217=EDGE_CURVE($,#170,#174,#97,.T.);
#218=EDGE_CURVE($,#173,#175,#98,.T.);
#219=EDGE_CURVE($,#176,#175,#99,.T.);
#220=EDGE_CURVE($,#174,#176,#100,.T.);
#221=EDGE_CURVE($,#175,#177,#101,.T.);
#222=EDGE_CURVE($,#178,#177,#102,.T.);
#223=EDGE_CURVE($,#176,#178,#103,.T.);
#224=EDGE_CURVE($,#177,#179,#104,.T.);
#225=EDGE_CURVE($,#180,#179,#105,.T.);
#226=EDGE_CURVE($,#178,#180,#106,.T.);
#227=EDGE_CURVE($,#179,#159,#107,.T.);
#228=EDGE_CURVE($,#180,#162,#108,.T.);
#229=ORIENTED_EDGE($,*,*,#181,.T.);
#230=ORIENTED_EDGE($,*,*,#182,.F.);
#231=ORIENTED_EDGE($,*,*,#183,.F.);
#232=ORIENTED_EDGE($,*,*,#184,.T.);
#233=ORIENTED_EDGE($,*,*,#185,.T.);
#234=ORIENTED_EDGE($,*,*,#186,.F.);
#235=ORIENTED_EDGE($,*,*,#187,.F.);
#236=ORIENTED_EDGE($,*,*,#188,.T.);
#237=ORIENTED_EDGE($,*,*,#189,.T.);
#238=ORIENTED_EDGE($,*,*,#190,.F.);
#239=ORIENTED_EDGE($,*,*,#191,.F.);
#240=ORIENTED_EDGE($,*,*,#186,.T.);
#241=ORIENTED_EDGE($,*,*,#192,.T.);
#242=ORIENTED_EDGE($,*,*,#193,.F.);
#243=ORIENTED_EDGE($,*,*,#194,.F.);
#244=ORIENTED_EDGE($,*,*,#195,.T.);
#245=ORIENTED_EDGE($,*,*,#196,.T.);
#246=ORIENTED_EDGE($,*,*,#197,.F.);
#247=ORIENTED_EDGE($,*,*,#198,.F.);
#248=ORIENTED_EDGE($,*,*,#193,.T.);
#249=ORIENTED_EDGE($,*,*,#199,.T.);
#250=ORIENTED_EDGE($,*,*,#200,.F.);
#251=ORIENTED_EDGE($,*,*,#201,.F.);
#252=ORIENTED_EDGE($,*,*,#197,.T.);
#253=ORIENTED_EDGE($,*,*,#202,.T.);
#254=ORIENTED_EDGE($,*,*,#203,.F.);
#255=ORIENTED_EDGE($,*,*,#204,.F.);
#256=ORIENTED_EDGE($,*,*,#200,.T.);
#257=ORIENTED_EDGE($,*,*,#205,.T.);
#258=ORIENTED_EDGE($,*,*,#206,.F.);
#259=ORIENTED_EDGE($,*,*,#207,.F.);
#260=ORIENTED_EDGE($,*,*,#203,.T.);
#261=ORIENTED_EDGE($,*,*,#208,.T.);
#262=ORIENTED_EDGE($,*,*,#184,.F.);
#263=ORIENTED_EDGE($,*,*,#209,.F.);
#264=ORIENTED_EDGE($,*,*,#182,.T.);
#265=ORIENTED_EDGE($,*,*,#210,.T.);
#266=ORIENTED_EDGE($,*,*,#211,.F.);
#267=ORIENTED_EDGE($,*,*,#212,.F.);
#268=ORIENTED_EDGE($,*,*,#190,.T.);
#269=ORIENTED_EDGE($,*,*,#213,.T.);
#270=ORIENTED_EDGE($,*,*,#188,.F.);
#271=ORIENTED_EDGE($,*,*,#214,.F.);
#272=ORIENTED_EDGE($,*,*,#211,.T.);
#273=ORIENTED_EDGE($,*,*,#215,.T.);
#274=ORIENTED_EDGE($,*,*,#216,.F.);
#275=ORIENTED_EDGE($,*,*,#217,.F.);
#276=ORIENTED_EDGE($,*,*,#206,.T.);
#277=ORIENTED_EDGE($,*,*,#218,.T.);
#278=ORIENTED_EDGE($,*,*,#219,.F.);
#279=ORIENTED_EDGE($,*,*,#220,.F.);
#280=ORIENTED_EDGE($,*,*,#216,.T.);
#281=ORIENTED_EDGE($,*,*,#221,.T.);
#282=ORIENTED_EDGE($,*,*,#222,.F.);
#283=ORIENTED_EDGE($,*,*,#223,.F.);
#284=ORIENTED_EDGE($,*,*,#219,.T.);
#285=ORIENTED_EDGE($,*,*,#224,.T.);
#286=ORIENTED_EDGE($,*,*,#225,.F.);
#287=ORIENTED_EDGE($,*,*,#226,.F.);
#288=ORIENTED_EDGE($,*,*,#222,.T.);
#289=ORIENTED_EDGE($,*,*,#227,.T.);
#290=ORIENTED_EDGE($,*,*,#195,.F.);
#291=ORIENTED_EDGE($,*,*,#228,.F.);
#292=ORIENTED_EDGE($,*,*,#225,.T.);
#293=ORIENTED_EDGE($,*,*,#215,.F.);
#294=ORIENTED_EDGE($,*,*,#205,.F.);
#295=ORIENTED_EDGE($,*,*,#202,.F.);
#296=ORIENTED_EDGE($,*,*,#199,.F.);
#297=ORIENTED_EDGE($,*,*,#196,.F.);
#298=ORIENTED_EDGE($,*,*,#192,.F.);
#299=ORIENTED_EDGE($,*,*,#227,.F.);
#300=ORIENTED_EDGE($,*,*,#224,.F.);
#301=ORIENTED_EDGE($,*,*,#221,.F.);
#302=ORIENTED_EDGE($,*,*,#218,.F.);
#303=ORIENTED_EDGE($,*,*,#210,.F.);
#304=ORIENTED_EDGE($,*,*,#189,.F.);
#305=ORIENTED_EDGE($,*,*,#185,.F.);
#306=ORIENTED_EDGE($,*,*,#213,.F.);
#307=ORIENTED_EDGE($,*,*,#208,.F.);
#308=ORIENTED_EDGE($,*,*,#181,.F.);
#309=ORIENTED_EDGE($,*,*,#217,.T.);
#310=ORIENTED_EDGE($,*,*,#220,.T.);
#311=ORIENTED_EDGE($,*,*,#223,.T.);
#312=ORIENTED_EDGE($,*,*,#226,.T.);
#313=ORIENTED_EDGE($,*,*,#228,.T.);
#314=ORIENTED_EDGE($,*,*,#194,.T.);
#315=ORIENTED_EDGE($,*,*,#198,.T.);
#316=ORIENTED_EDGE($,*,*,#201,.T.);
#317=ORIENTED_EDGE($,*,*,#204,.T.);
#318=ORIENTED_EDGE($,*,*,#207,.T.);
#319=ORIENTED_EDGE($,*,*,#212,.T.);
#320=ORIENTED_EDGE($,*,*,#214,.T.);
#321=ORIENTED_EDGE($,*,*,#187,.T.);
#322=ORIENTED_EDGE($,*,*,#191,.T.);
#323=ORIENTED_EDGE($,*,*,#209,.T.);
#324=ORIENTED_EDGE($,*,*,#183,.T.);
#325=PLANE($,#360);
#326=PLANE($,#361);
#327=PLANE($,#365);
#328=PLANE($,#366);
#329=PLANE($,#367);
#330=PLANE($,#368);
#331=PLANE($,#375);
#332=PLANE($,#379);
#333=PLANE($,#380);
#334=PLANE($,#381);
#335=PLANE($,#382);
#336=PLANE($,#383);
#337=PLANE($,#384);
#338=PLANE($,#385);
#339=ADVANCED_FACE($,(#29),#325,.F.);
#340=ADVANCED_FACE($,(#30),#326,.F.);
#341=ADVANCED_FACE($,(#31),#25,.F.);
#342=ADVANCED_FACE($,(#32),#327,.T.);
#343=ADVANCED_FACE($,(#33),#328,.T.);
#344=ADVANCED_FACE($,(#34),#329,.T.);
#345=ADVANCED_FACE($,(#35),#330,.T.);
#346=ADVANCED_FACE($,(#36),#26,.T.);
#347=ADVANCED_FACE($,(#37),#27,.F.);
#348=ADVANCED_FACE($,(#38),#331,.F.);
#349=ADVANCED_FACE($,(#39),#28,.F.);
#350=ADVANCED_FACE($,(#40),#332,.T.);
#351=ADVANCED_FACE($,(#41),#333,.T.);
#352=ADVANCED_FACE($,(#42),#334,.T.);
#353=ADVANCED_FACE($,(#43),#335,.T.);
#354=ADVANCED_FACE($,(#44),#336,.T.);
#355=ADVANCED_FACE($,(#45,#13,#14),#337,.T.);
#356=ADVANCED_FACE($,(#46,#15,#16),#338,.F.);
#357=CLOSED_SHELL($,(#339,#340,#341,#342,#343,#344,#345,#346,#347,#348,
#349,#350,#351,#352,#353,#354,#355,#356));
#358=MANIFOLD_SOLID_BREP('T\X2\011B\X0\leso1',#357);
#359=AXIS2_PLACEMENT_3D('placement',#480,#386,#387);
#360=AXIS2_PLACEMENT_3D($,#481,#388,#389);
#361=AXIS2_PLACEMENT_3D($,#490,#394,#395);
#362=AXIS2_PLACEMENT_3D($,#499,#400,#401);
#363=AXIS2_PLACEMENT_3D($,#501,#402,#403);
#364=AXIS2_PLACEMENT_3D($,#504,#405,#406);
#365=AXIS2_PLACEMENT_3D($,#505,#407,#408);
#366=AXIS2_PLACEMENT_3D($,#514,#413,#414);
#367=AXIS2_PLACEMENT_3D($,#520,#418,#419);
#368=AXIS2_PLACEMENT_3D($,#526,#423,#424);
#369=AXIS2_PLACEMENT_3D($,#532,#428,#429);
#370=AXIS2_PLACEMENT_3D($,#534,#430,#431);
#371=AXIS2_PLACEMENT_3D($,#537,#433,#434);
#372=AXIS2_PLACEMENT_3D($,#538,#435,#436);
#373=AXIS2_PLACEMENT_3D($,#539,#437,#438);
#374=AXIS2_PLACEMENT_3D($,#540,#439,#440);
#375=AXIS2_PLACEMENT_3D($,#541,#441,#442);
#376=AXIS2_PLACEMENT_3D($,#547,#446,#447);
#377=AXIS2_PLACEMENT_3D($,#548,#448,#449);
#378=AXIS2_PLACEMENT_3D($,#549,#450,#451);
#379=AXIS2_PLACEMENT_3D($,#550,#452,#453);
#380=AXIS2_PLACEMENT_3D($,#556,#457,#458);
#381=AXIS2_PLACEMENT_3D($,#562,#462,#463);
#382=AXIS2_PLACEMENT_3D($,#568,#467,#468);
#383=AXIS2_PLACEMENT_3D($,#574,#472,#473);
#384=AXIS2_PLACEMENT_3D($,#577,#476,#477);
#385=AXIS2_PLACEMENT_3D($,#578,#478,#479);
#386=DIRECTION('axis',(0.,0.,1.));
#387=DIRECTION('refdir',(1.,0.,0.));
#388=DIRECTION('center_axis',(1.9820367045121E-015,-1.,0.));
#389=DIRECTION('ref_axis',(0.,0.,-1.));
#390=DIRECTION($,(1.,1.9820367045121E-015,0.));
#391=DIRECTION($,(0.,0.,1.));
#392=DIRECTION($,(1.,1.9820367045121E-015,0.));
#393=DIRECTION($,(0.,0.,1.));
#394=DIRECTION('center_axis',(-1.,0.,0.));
#395=DIRECTION('ref_axis',(0.,0.,1.));
#396=DIRECTION($,(0.,-1.,0.));
#397=DIRECTION($,(0.,0.,1.));
#398=DIRECTION($,(0.,-1.,0.));
#399=DIRECTION($,(0.,0.,1.));
#400=DIRECTION('center_axis',(0.,0.,1.));
#401=DIRECTION('ref_axis',(-1.,0.,0.));
#402=DIRECTION('center_axis',(0.,0.,1.));
#403=DIRECTION('ref_axis',(-1.,0.,0.));
#404=DIRECTION($,(0.,0.,1.));
#405=DIRECTION('center_axis',(0.,0.,1.));
#406=DIRECTION('ref_axis',(-1.,0.,0.));
#407=DIRECTION('center_axis',(-0.916490872185868,-0.400055597636112,0.));
#408=DIRECTION('ref_axis',(0.,0.,1.));
#409=DIRECTION($,(-0.400055597636112,0.916490872185868,0.));
#410=DIRECTION($,(0.,0.,1.));
#411=DIRECTION($,(-0.400055597636112,0.916490872185868,0.));
#412=DIRECTION($,(0.,0.,1.));
#413=DIRECTION('center_axis',(0.,1.,0.));
#414=DIRECTION('ref_axis',(0.,0.,1.));
#415=DIRECTION($,(1.,0.,0.));
#416=DIRECTION($,(0.,0.,1.));
#417=DIRECTION($,(1.,0.,0.));
#418=DIRECTION('center_axis',(-1.,2.22044604925031E-016,0.));
#419=DIRECTION('ref_axis',(0.,0.,1.));
#420=DIRECTION($,(2.22044604925031E-016,1.,0.));
#421=DIRECTION($,(0.,0.,1.));
#422=DIRECTION($,(2.22044604925031E-016,1.,0.));
#423=DIRECTION('center_axis',(4.47578862457465E-015,-1.,0.));
#424=DIRECTION('ref_axis',(0.,0.,-1.));
#425=DIRECTION($,(-1.,-4.47578862457465E-015,0.));
#426=DIRECTION($,(0.,0.,1.));
#427=DIRECTION($,(-1.,-4.47578862457465E-015,0.));
#428=DIRECTION('center_axis',(0.,0.,1.));
#429=DIRECTION('ref_axis',(0.989309172548648,0.145833333333329,0.));
#430=DIRECTION('center_axis',(0.,0.,-1.));
#431=DIRECTION('ref_axis',(0.989309172548648,0.145833333333329,0.));
#432=DIRECTION($,(0.,0.,1.));
#433=DIRECTION('center_axis',(0.,0.,-1.));
#434=DIRECTION('ref_axis',(0.989309172548648,0.145833333333329,0.));
#435=DIRECTION('center_axis',(0.,0.,1.));
#436=DIRECTION('ref_axis',(0.907638334603101,0.419753086419754,0.));
#437=DIRECTION('center_axis',(0.,0.,1.));
#438=DIRECTION('ref_axis',(0.907638334603101,0.419753086419754,0.));
#439=DIRECTION('center_axis',(0.,0.,1.));
#440=DIRECTION('ref_axis',(0.907638334603101,0.419753086419754,0.));
#441=DIRECTION('center_axis',(1.,0.,0.));
#442=DIRECTION('ref_axis',(0.,0.,-1.));
#443=DIRECTION($,(0.,1.,0.));
#444=DIRECTION($,(0.,0.,1.));
#445=DIRECTION($,(0.,1.,0.));
#446=DIRECTION('center_axis',(0.,0.,1.));
#447=DIRECTION('ref_axis',(1.,0.,0.));
#448=DIRECTION('center_axis',(0.,0.,1.));
#449=DIRECTION('ref_axis',(1.,0.,0.));
#450=DIRECTION('center_axis',(0.,0.,1.));
#451=DIRECTION('ref_axis',(1.,0.,0.));
#452=DIRECTION('center_axis',(-5.47040831892457E-015,-1.,0.));
#453=DIRECTION('ref_axis',(0.,0.,-1.));
#454=DIRECTION($,(-1.,5.47040831892457E-015,0.));
#455=DIRECTION($,(0.,0.,1.));
#456=DIRECTION($,(-1.,5.47040831892457E-015,0.));
#457=DIRECTION('center_axis',(1.,0.,0.));
#458=DIRECTION('ref_axis',(0.,0.,-1.));
#459=DIRECTION($,(0.,-1.,0.));
#460=DIRECTION($,(0.,0.,1.));
#461=DIRECTION($,(0.,-1.,0.));
#462=DIRECTION('center_axis',(0.,1.,0.));
#463=DIRECTION('ref_axis',(0.,0.,1.));
#464=DIRECTION($,(1.,0.,0.));
#465=DIRECTION($,(0.,0.,1.));
#466=DIRECTION($,(1.,0.,0.));
#467=DIRECTION('center_axis',(0.916490872185868,-0.400055597636112,0.));
#468=DIRECTION('ref_axis',(0.,0.,-1.));
#469=DIRECTION($,(-0.400055597636112,-0.916490872185868,0.));
#470=DIRECTION($,(0.,0.,1.));
#471=DIRECTION($,(-0.400055597636112,-0.916490872185868,0.));
#472=DIRECTION('center_axis',(0.,-1.,0.));
#473=DIRECTION('ref_axis',(0.,0.,-1.));
#474=DIRECTION($,(-1.,0.,0.));
#475=DIRECTION($,(-1.,0.,0.));
#476=DIRECTION('center_axis',(0.,0.,1.));
#477=DIRECTION('ref_axis',(1.,0.,0.));
#478=DIRECTION('center_axis',(0.,0.,1.));
#479=DIRECTION('ref_axis',(1.,0.,0.));
#480=CARTESIAN_POINT('',(0.,0.,0.));
#481=CARTESIAN_POINT('Origin',(7.35187051028512,2.00000000000001,0.));
#482=CARTESIAN_POINT('',(-7.35187051028512,1.99999999999999,100.));
#483=CARTESIAN_POINT('',(7.35187051028512,2.00000000000001,100.));
#484=CARTESIAN_POINT($,(3.67593525514256,2.00000000000001,100.));
#485=CARTESIAN_POINT('',(7.35187051028512,2.00000000000001,0.));
#486=CARTESIAN_POINT($,(7.35187051028512,2.00000000000001,0.));
#487=CARTESIAN_POINT('',(-7.35187051028512,1.99999999999999,0.));
#488=CARTESIAN_POINT($,(3.67593525514256,2.00000000000001,0.));
#489=CARTESIAN_POINT($,(-7.35187051028512,1.99999999999999,0.));
#490=CARTESIAN_POINT('Origin',(-1.5,-3.75,0.));
#491=CARTESIAN_POINT('',(-1.5,-2.25,100.));
#492=CARTESIAN_POINT('',(-1.5,-3.75,100.));
#493=CARTESIAN_POINT($,(-1.5,-1.575,100.));
#494=CARTESIAN_POINT('',(-1.5,-3.75,0.));
#495=CARTESIAN_POINT($,(-1.5,-3.75,0.));
#496=CARTESIAN_POINT('',(-1.5,-2.25,0.));
#497=CARTESIAN_POINT($,(-1.5,-1.575,0.));
#498=CARTESIAN_POINT($,(-1.5,-2.25,0.));
#499=CARTESIAN_POINT('Origin',(0.,-3.75,0.));
#500=CARTESIAN_POINT('',(1.5,-3.75,100.));
#501=CARTESIAN_POINT('Origin',(0.,-3.75,100.));
#502=CARTESIAN_POINT('',(1.5,-3.75,0.));
#503=CARTESIAN_POINT($,(1.5,-3.75,0.));
#504=CARTESIAN_POINT('Origin',(0.,-3.75,0.));
#505=CARTESIAN_POINT('Origin',(-2.28571399999998,-7.,0.));
#506=CARTESIAN_POINT('',(-2.28571399999998,-7.,100.));
#507=CARTESIAN_POINT('',(-4.25,-2.5,100.));
#508=CARTESIAN_POINT($,(-3.49606579803058,-4.22719446601074,100.));
#509=CARTESIAN_POINT('',(-4.25,-2.5,0.));
#510=CARTESIAN_POINT($,(-4.25,-2.5,0.));
#511=CARTESIAN_POINT('',(-2.28571399999998,-7.,0.));
#512=CARTESIAN_POINT($,(-3.49606579803058,-4.22719446601074,0.));
#513=CARTESIAN_POINT($,(-2.28571399999998,-7.,0.));
#514=CARTESIAN_POINT('Origin',(-4.25,-2.5,0.));
#515=CARTESIAN_POINT('',(-2.79999599999999,-2.5,100.));
#516=CARTESIAN_POINT($,(-2.125,-2.5,100.));
#517=CARTESIAN_POINT('',(-2.79999599999999,-2.5,0.));
#518=CARTESIAN_POINT($,(-2.79999599999999,-2.5,0.));
#519=CARTESIAN_POINT($,(-2.125,-2.5,0.));
#520=CARTESIAN_POINT('Origin',(-2.79999599999999,-2.5,0.));
#521=CARTESIAN_POINT('',(-2.79999599999999,0.,100.));
#522=CARTESIAN_POINT($,(-2.79999599999999,-0.949999999999998,100.));
#523=CARTESIAN_POINT('',(-2.79999599999999,0.,0.));
#524=CARTESIAN_POINT($,(-2.79999599999999,0.,0.));
#525=CARTESIAN_POINT($,(-2.79999599999999,-0.949999999999998,0.));
#526=CARTESIAN_POINT('Origin',(-2.79999599999999,0.,0.));
#527=CARTESIAN_POINT('',(-9.49736805646702,-2.99760216648792E-014,100.));
#528=CARTESIAN_POINT($,(-1.39999799999999,6.27969898303604E-015,100.));
#529=CARTESIAN_POINT('',(-9.49736805646702,-2.99760216648792E-014,0.));
#530=CARTESIAN_POINT($,(-9.49736805646702,-2.99760216648792E-014,0.));
#531=CARTESIAN_POINT($,(-1.39999799999999,6.27969898303604E-015,0.));
#532=CARTESIAN_POINT('Origin',(0.,-1.39999999999999,0.));
#533=CARTESIAN_POINT('',(9.49736805646702,-3.66373598126302E-014,100.));
#534=CARTESIAN_POINT('Origin',(0.,-1.39999999999999,100.));
#535=CARTESIAN_POINT('',(9.49736805646702,-3.66373598126302E-014,0.));
#536=CARTESIAN_POINT($,(9.49736805646702,-3.66373598126302E-014,0.));
#537=CARTESIAN_POINT('Origin',(0.,-1.39999999999999,0.));
#538=CARTESIAN_POINT('Origin',(0.,-1.39999999999999,0.));
#539=CARTESIAN_POINT('Origin',(0.,-1.39999999999999,100.));
#540=CARTESIAN_POINT('Origin',(0.,-1.39999999999999,0.));
#541=CARTESIAN_POINT('Origin',(1.5,-2.25,0.));
#542=CARTESIAN_POINT('',(1.5,-2.25,100.));
#543=CARTESIAN_POINT($,(1.5,-0.824999999999998,100.));
#544=CARTESIAN_POINT('',(1.5,-2.25,0.));
#545=CARTESIAN_POINT($,(1.5,-2.25,0.));
#546=CARTESIAN_POINT($,(1.5,-0.824999999999998,0.));
#547=CARTESIAN_POINT('Origin',(0.,-2.25,0.));
#548=CARTESIAN_POINT('Origin',(0.,-2.25,100.));
#549=CARTESIAN_POINT('Origin',(0.,-2.25,0.));
#550=CARTESIAN_POINT('Origin',(9.49736805646702,-3.66373598126302E-014,
0.));
#551=CARTESIAN_POINT('',(2.79999599999999,0.,100.));
#552=CARTESIAN_POINT($,(4.74868402823351,-1.06512021424976E-014,100.));
#553=CARTESIAN_POINT('',(2.79999599999999,0.,0.));
#554=CARTESIAN_POINT($,(2.79999599999999,0.,0.));
#555=CARTESIAN_POINT($,(4.74868402823351,-1.06512021424976E-014,0.));
#556=CARTESIAN_POINT('Origin',(2.79999599999999,0.,0.));
#557=CARTESIAN_POINT('',(2.79999599999999,-2.5,100.));
#558=CARTESIAN_POINT($,(2.79999599999999,0.300000000000002,100.));
#559=CARTESIAN_POINT('',(2.79999599999999,-2.5,0.));
#560=CARTESIAN_POINT($,(2.79999599999999,-2.5,0.));
#561=CARTESIAN_POINT($,(2.79999599999999,0.300000000000002,0.));
#562=CARTESIAN_POINT('Origin',(2.79999599999999,-2.5,0.));
#563=CARTESIAN_POINT('',(4.25,-2.5,100.));
#564=CARTESIAN_POINT($,(1.399998,-2.5,100.));
#565=CARTESIAN_POINT('',(4.25,-2.5,0.));
#566=CARTESIAN_POINT($,(4.25,-2.5,0.));
#567=CARTESIAN_POINT($,(1.399998,-2.5,0.));
#568=CARTESIAN_POINT('Origin',(4.25,-2.5,0.));
#569=CARTESIAN_POINT('',(2.28571399999998,-7.,100.));
#570=CARTESIAN_POINT($,(4.47820879803059,-1.97719446601074,100.));
#571=CARTESIAN_POINT('',(2.28571399999998,-7.,0.));
#572=CARTESIAN_POINT($,(2.28571399999998,-7.,0.));
#573=CARTESIAN_POINT($,(4.47820879803059,-1.97719446601074,0.));
#574=CARTESIAN_POINT('Origin',(2.28571399999998,-7.,0.));
#575=CARTESIAN_POINT($,(1.14285699999999,-7.,100.));
#576=CARTESIAN_POINT($,(1.14285699999999,-7.,0.));
#577=CARTESIAN_POINT('Origin',(5.55111512312578E-016,0.600000000000004,
100.));
#578=CARTESIAN_POINT('Origin',(5.55111512312578E-016,0.600000000000004,
0.));
#579=UNCERTAINTY_MEASURE_WITH_UNIT(LENGTH_MEASURE(0.01),#581,
'DISTANCE_ACCURACY_VALUE',
'Maximum model space distance between geometric entities at asserted c
onnectivities');
#580=(
GEOMETRIC_REPRESENTATION_CONTEXT(3)
GLOBAL_UNCERTAINTY_ASSIGNED_CONTEXT((#579))
GLOBAL_UNIT_ASSIGNED_CONTEXT((#581,#584,#582))
REPRESENTATION_CONTEXT('','3D')
);
#581=(
LENGTH_UNIT()
NAMED_UNIT(*)
SI_UNIT(.MILLI.,.METRE.)
);
#582=(
NAMED_UNIT(*)
SI_UNIT($,.STERADIAN.)
SOLID_ANGLE_UNIT()
);
#583=DIMENSIONAL_EXPONENTS(0.,0.,0.,0.,0.,0.,0.);
#584=(
CONVERSION_BASED_UNIT('degree',#586)
NAMED_UNIT(#583)
PLANE_ANGLE_UNIT()
);
#585=(
NAMED_UNIT(*)
PLANE_ANGLE_UNIT()
SI_UNIT($,.RADIAN.)
);
#586=PLANE_ANGLE_MEASURE_WITH_UNIT(PLANE_ANGLE_MEASURE(0.01745329252),#585);
#587=SHAPE_DEFINITION_REPRESENTATION(#588,#589);
#588=PRODUCT_DEFINITION_SHAPE('',$,#591);
#589=SHAPE_REPRESENTATION('',(#359),#580);
#590=DESIGN_CONTEXT('3D Mechanical Parts',#594,'design');
#591=PRODUCT_DEFINITION('-700029-7','-700029-7',#592,#590);
#592=PRODUCT_DEFINITION_FORMATION('',$,#596);
#593=APPLICATION_PROTOCOL_DEFINITION('international standard',
'ap203_configuration_controlled_3d_design_of_mechanical_parts_and_asse
mblies_mim_lf',2004,#594);
#594=APPLICATION_CONTEXT(
'Configuration Controlled 3D Design of Mechanical Parts and Assemblies');
#595=MECHANICAL_CONTEXT('3D Mechanical Parts',#594,'mechanical');
#596=PRODUCT('-700029-7','-700029-7',$,(#595));
#597=PRESENTATION_STYLE_ASSIGNMENT((#598));
#598=SURFACE_STYLE_USAGE(.BOTH.,#599);
#599=SURFACE_SIDE_STYLE($,(#600));
#600=SURFACE_STYLE_FILL_AREA(#601);
#601=FILL_AREA_STYLE($,(#602));
#602=FILL_AREA_STYLE_COLOUR($,#603);
#603=COLOUR_RGB('',0.258823529411765,0.258823529411765,0.258823529411765);
ENDSEC;
END-ISO-10303-21;
