ISO-10303-21;
HEADER;
/* Generated by software containing ST-Developer
 * from STEP Tools, Inc. (www.steptools.com) 
 */

FILE_DESCRIPTION(
/* description */ ('Gumov\X\E9 t\X2\011B\X0\sn\X2\011B\X0\n\X\ED panel
 5 mm'),
/* implementation_level */ '2;1');

FILE_NAME(
/* name */ 'C:\\Vault_pracovn\X\ED\\Zak\X\E1zky\\Kal\X\E1b_pokus\\7000
05.stp',
/* time_stamp */ '2014-08-19T08:58:18+02:00',
/* author */ ('jank'),
/* organization */ (''),
/* preprocessor_version */ 'ST-DEVELOPER v15.2',
/* originating_system */ 'Autodesk Inventor 2014',
/* authorisation */ '');

FILE_SCHEMA (('CONFIG_CONTROL_DESIGN'));
ENDSEC;

DATA;
#10=SHAPE_REPRESENTATION_RELATIONSHIP('SRR','None',#548,#11);
#11=ADVANCED_BREP_SHAPE_REPRESENTATION($,(#329),#539);
#12=STYLED_ITEM($,(#556),#329);
#13=CIRCLE($,#335,1.);
#14=CIRCLE($,#336,1.);
#15=CIRCLE($,#339,4.567796);
#16=CIRCLE($,#340,4.567796);
#17=CIRCLE($,#342,0.5);
#18=CIRCLE($,#343,0.5);
#19=CIRCLE($,#347,1.);
#20=CIRCLE($,#348,1.);
#21=CYLINDRICAL_SURFACE($,#334,1.);
#22=CYLINDRICAL_SURFACE($,#338,4.567796);
#23=CYLINDRICAL_SURFACE($,#341,0.5);
#24=CYLINDRICAL_SURFACE($,#346,1.);
#25=FACE_OUTER_BOUND($,#42,.T.);
#26=FACE_OUTER_BOUND($,#43,.T.);
#27=FACE_OUTER_BOUND($,#44,.T.);
#28=FACE_OUTER_BOUND($,#45,.T.);
#29=FACE_OUTER_BOUND($,#46,.T.);
#30=FACE_OUTER_BOUND($,#47,.T.);
#31=FACE_OUTER_BOUND($,#48,.T.);
#32=FACE_OUTER_BOUND($,#49,.T.);
#33=FACE_OUTER_BOUND($,#50,.T.);
#34=FACE_OUTER_BOUND($,#51,.T.);
#35=FACE_OUTER_BOUND($,#52,.T.);
#36=FACE_OUTER_BOUND($,#53,.T.);
#37=FACE_OUTER_BOUND($,#54,.T.);
#38=FACE_OUTER_BOUND($,#55,.T.);
#39=FACE_OUTER_BOUND($,#56,.T.);
#40=FACE_OUTER_BOUND($,#57,.T.);
#41=FACE_OUTER_BOUND($,#58,.T.);
#42=EDGE_LOOP($,(#208,#209,#210,#211));
#43=EDGE_LOOP($,(#212,#213,#214,#215));
#44=EDGE_LOOP($,(#216,#217,#218,#219));
#45=EDGE_LOOP($,(#220,#221,#222,#223));
#46=EDGE_LOOP($,(#224,#225,#226,#227));
#47=EDGE_LOOP($,(#228,#229,#230,#231));
#48=EDGE_LOOP($,(#232,#233,#234,#235));
#49=EDGE_LOOP($,(#236,#237,#238,#239));
#50=EDGE_LOOP($,(#240,#241,#242,#243));
#51=EDGE_LOOP($,(#244,#245,#246,#247));
#52=EDGE_LOOP($,(#248,#249,#250,#251));
#53=EDGE_LOOP($,(#252,#253,#254,#255));
#54=EDGE_LOOP($,(#256,#257,#258,#259));
#55=EDGE_LOOP($,(#260,#261,#262,#263));
#56=EDGE_LOOP($,(#264,#265,#266,#267));
#57=EDGE_LOOP($,(#268,#269,#270,#271,#272,#273,#274,#275,#276,#277,#278,
#279,#280,#281,#282));
#58=EDGE_LOOP($,(#283,#284,#285,#286,#287,#288,#289,#290,#291,#292,#293,
#294,#295,#296,#297));
#59=LINE($,#449,#96);
#60=LINE($,#451,#97);
#61=LINE($,#453,#98);
#62=LINE($,#454,#99);
#63=LINE($,#457,#100);
#64=LINE($,#459,#101);
#65=LINE($,#460,#102);
#66=LINE($,#463,#103);
#67=LINE($,#465,#104);
#68=LINE($,#466,#105);
#69=LINE($,#471,#106);
#70=LINE($,#475,#107);
#71=LINE($,#477,#108);
#72=LINE($,#478,#109);
#73=LINE($,#483,#110);
#74=LINE($,#489,#111);
#75=LINE($,#493,#112);
#76=LINE($,#495,#113);
#77=LINE($,#496,#114);
#78=LINE($,#499,#115);
#79=LINE($,#501,#116);
#80=LINE($,#502,#117);
#81=LINE($,#507,#118);
#82=LINE($,#511,#119);
#83=LINE($,#513,#120);
#84=LINE($,#514,#121);
#85=LINE($,#517,#122);
#86=LINE($,#519,#123);
#87=LINE($,#520,#124);
#88=LINE($,#523,#125);
#89=LINE($,#525,#126);
#90=LINE($,#526,#127);
#91=LINE($,#529,#128);
#92=LINE($,#531,#129);
#93=LINE($,#532,#130);
#94=LINE($,#534,#131);
#95=LINE($,#535,#132);
#96=VECTOR($,#360,4.2999999940187);
#97=VECTOR($,#361,100.);
#98=VECTOR($,#362,4.2999999940187);
#99=VECTOR($,#363,100.);
#100=VECTOR($,#366,2.);
#101=VECTOR($,#367,100.);
#102=VECTOR($,#368,2.);
#103=VECTOR($,#371,1.);
#104=VECTOR($,#372,100.);
#105=VECTOR($,#373,1.);
#106=VECTOR($,#378,100.);
#107=VECTOR($,#383,1.);
#108=VECTOR($,#384,100.);
#109=VECTOR($,#385,1.);
#110=VECTOR($,#390,100.);
#111=VECTOR($,#397,100.);
#112=VECTOR($,#402,3.92730915084089);
#113=VECTOR($,#403,100.);
#114=VECTOR($,#404,3.92730915084089);
#115=VECTOR($,#407,7.408699);
#116=VECTOR($,#408,100.);
#117=VECTOR($,#409,7.408699);
#118=VECTOR($,#414,100.);
#119=VECTOR($,#419,2.);
#120=VECTOR($,#420,100.);
#121=VECTOR($,#421,2.);
#122=VECTOR($,#424,0.999999516348985);
#123=VECTOR($,#425,100.);
#124=VECTOR($,#426,0.999999516348985);
#125=VECTOR($,#429,5.09901960844457);
#126=VECTOR($,#430,100.);
#127=VECTOR($,#431,5.09901960844457);
#128=VECTOR($,#434,1.);
#129=VECTOR($,#435,100.);
#130=VECTOR($,#436,1.);
#131=VECTOR($,#439,0.999999970093523);
#132=VECTOR($,#440,0.999999970093523);
#133=VERTEX_POINT($,#447);
#134=VERTEX_POINT($,#448);
#135=VERTEX_POINT($,#450);
#136=VERTEX_POINT($,#452);
#137=VERTEX_POINT($,#456);
#138=VERTEX_POINT($,#458);
#139=VERTEX_POINT($,#462);
#140=VERTEX_POINT($,#464);
#141=VERTEX_POINT($,#468);
#142=VERTEX_POINT($,#470);
#143=VERTEX_POINT($,#474);
#144=VERTEX_POINT($,#476);
#145=VERTEX_POINT($,#480);
#146=VERTEX_POINT($,#482);
#147=VERTEX_POINT($,#486);
#148=VERTEX_POINT($,#488);
#149=VERTEX_POINT($,#492);
#150=VERTEX_POINT($,#494);
#151=VERTEX_POINT($,#498);
#152=VERTEX_POINT($,#500);
#153=VERTEX_POINT($,#504);
#154=VERTEX_POINT($,#506);
#155=VERTEX_POINT($,#510);
#156=VERTEX_POINT($,#512);
#157=VERTEX_POINT($,#516);
#158=VERTEX_POINT($,#518);
#159=VERTEX_POINT($,#522);
#160=VERTEX_POINT($,#524);
#161=VERTEX_POINT($,#528);
#162=VERTEX_POINT($,#530);
#163=EDGE_CURVE($,#133,#134,#59,.T.);
#164=EDGE_CURVE($,#135,#134,#60,.T.);
#165=EDGE_CURVE($,#136,#135,#61,.T.);
#166=EDGE_CURVE($,#136,#133,#62,.T.);
#167=EDGE_CURVE($,#134,#137,#63,.T.);
#168=EDGE_CURVE($,#138,#137,#64,.T.);
#169=EDGE_CURVE($,#135,#138,#65,.T.);
#170=EDGE_CURVE($,#137,#139,#66,.T.);
#171=EDGE_CURVE($,#140,#139,#67,.T.);
#172=EDGE_CURVE($,#138,#140,#68,.T.);
#173=EDGE_CURVE($,#139,#141,#13,.T.);
#174=EDGE_CURVE($,#142,#141,#69,.T.);
#175=EDGE_CURVE($,#140,#142,#14,.T.);
#176=EDGE_CURVE($,#141,#143,#70,.T.);
#177=EDGE_CURVE($,#144,#143,#71,.T.);
#178=EDGE_CURVE($,#142,#144,#72,.T.);
#179=EDGE_CURVE($,#143,#145,#15,.T.);
#180=EDGE_CURVE($,#146,#145,#73,.T.);
#181=EDGE_CURVE($,#144,#146,#16,.T.);
#182=EDGE_CURVE($,#145,#147,#17,.T.);
#183=EDGE_CURVE($,#148,#147,#74,.T.);
#184=EDGE_CURVE($,#146,#148,#18,.T.);
#185=EDGE_CURVE($,#147,#149,#75,.T.);
#186=EDGE_CURVE($,#150,#149,#76,.T.);
#187=EDGE_CURVE($,#148,#150,#77,.T.);
#188=EDGE_CURVE($,#149,#151,#78,.T.);
#189=EDGE_CURVE($,#152,#151,#79,.T.);
#190=EDGE_CURVE($,#150,#152,#80,.T.);
#191=EDGE_CURVE($,#151,#153,#19,.T.);
#192=EDGE_CURVE($,#154,#153,#81,.T.);
#193=EDGE_CURVE($,#152,#154,#20,.T.);
#194=EDGE_CURVE($,#153,#155,#82,.T.);
#195=EDGE_CURVE($,#156,#155,#83,.T.);
#196=EDGE_CURVE($,#154,#156,#84,.T.);
#197=EDGE_CURVE($,#155,#157,#85,.T.);
#198=EDGE_CURVE($,#158,#157,#86,.T.);
#199=EDGE_CURVE($,#156,#158,#87,.T.);
#200=EDGE_CURVE($,#157,#159,#88,.T.);
#201=EDGE_CURVE($,#160,#159,#89,.T.);
#202=EDGE_CURVE($,#158,#160,#90,.T.);
#203=EDGE_CURVE($,#159,#161,#91,.T.);
#204=EDGE_CURVE($,#162,#161,#92,.T.);
#205=EDGE_CURVE($,#160,#162,#93,.T.);
#206=EDGE_CURVE($,#161,#133,#94,.T.);
#207=EDGE_CURVE($,#162,#136,#95,.T.);
#208=ORIENTED_EDGE($,*,*,#163,.T.);
#209=ORIENTED_EDGE($,*,*,#164,.F.);
#210=ORIENTED_EDGE($,*,*,#165,.F.);
#211=ORIENTED_EDGE($,*,*,#166,.T.);
#212=ORIENTED_EDGE($,*,*,#167,.T.);
#213=ORIENTED_EDGE($,*,*,#168,.F.);
#214=ORIENTED_EDGE($,*,*,#169,.F.);
#215=ORIENTED_EDGE($,*,*,#164,.T.);
#216=ORIENTED_EDGE($,*,*,#170,.T.);
#217=ORIENTED_EDGE($,*,*,#171,.F.);
#218=ORIENTED_EDGE($,*,*,#172,.F.);
#219=ORIENTED_EDGE($,*,*,#168,.T.);
#220=ORIENTED_EDGE($,*,*,#173,.T.);
#221=ORIENTED_EDGE($,*,*,#174,.F.);
#222=ORIENTED_EDGE($,*,*,#175,.F.);
#223=ORIENTED_EDGE($,*,*,#171,.T.);
#224=ORIENTED_EDGE($,*,*,#176,.T.);
#225=ORIENTED_EDGE($,*,*,#177,.F.);
#226=ORIENTED_EDGE($,*,*,#178,.F.);
#227=ORIENTED_EDGE($,*,*,#174,.T.);
#228=ORIENTED_EDGE($,*,*,#179,.T.);
#229=ORIENTED_EDGE($,*,*,#180,.F.);
#230=ORIENTED_EDGE($,*,*,#181,.F.);
#231=ORIENTED_EDGE($,*,*,#177,.T.);
#232=ORIENTED_EDGE($,*,*,#182,.T.);
#233=ORIENTED_EDGE($,*,*,#183,.F.);
#234=ORIENTED_EDGE($,*,*,#184,.F.);
#235=ORIENTED_EDGE($,*,*,#180,.T.);
#236=ORIENTED_EDGE($,*,*,#185,.T.);
#237=ORIENTED_EDGE($,*,*,#186,.F.);
#238=ORIENTED_EDGE($,*,*,#187,.F.);
#239=ORIENTED_EDGE($,*,*,#183,.T.);
#240=ORIENTED_EDGE($,*,*,#188,.T.);
#241=ORIENTED_EDGE($,*,*,#189,.F.);
#242=ORIENTED_EDGE($,*,*,#190,.F.);
#243=ORIENTED_EDGE($,*,*,#186,.T.);
#244=ORIENTED_EDGE($,*,*,#191,.T.);
#245=ORIENTED_EDGE($,*,*,#192,.F.);
#246=ORIENTED_EDGE($,*,*,#193,.F.);
#247=ORIENTED_EDGE($,*,*,#189,.T.);
#248=ORIENTED_EDGE($,*,*,#194,.T.);
#249=ORIENTED_EDGE($,*,*,#195,.F.);
#250=ORIENTED_EDGE($,*,*,#196,.F.);
#251=ORIENTED_EDGE($,*,*,#192,.T.);
#252=ORIENTED_EDGE($,*,*,#197,.T.);
#253=ORIENTED_EDGE($,*,*,#198,.F.);
#254=ORIENTED_EDGE($,*,*,#199,.F.);
#255=ORIENTED_EDGE($,*,*,#195,.T.);
#256=ORIENTED_EDGE($,*,*,#200,.T.);
#257=ORIENTED_EDGE($,*,*,#201,.F.);
#258=ORIENTED_EDGE($,*,*,#202,.F.);
#259=ORIENTED_EDGE($,*,*,#198,.T.);
#260=ORIENTED_EDGE($,*,*,#203,.T.);
#261=ORIENTED_EDGE($,*,*,#204,.F.);
#262=ORIENTED_EDGE($,*,*,#205,.F.);
#263=ORIENTED_EDGE($,*,*,#201,.T.);
#264=ORIENTED_EDGE($,*,*,#206,.T.);
#265=ORIENTED_EDGE($,*,*,#166,.F.);
#266=ORIENTED_EDGE($,*,*,#207,.F.);
#267=ORIENTED_EDGE($,*,*,#204,.T.);
#268=ORIENTED_EDGE($,*,*,#185,.F.);
#269=ORIENTED_EDGE($,*,*,#182,.F.);
#270=ORIENTED_EDGE($,*,*,#179,.F.);
#271=ORIENTED_EDGE($,*,*,#176,.F.);
#272=ORIENTED_EDGE($,*,*,#173,.F.);
#273=ORIENTED_EDGE($,*,*,#170,.F.);
#274=ORIENTED_EDGE($,*,*,#167,.F.);
#275=ORIENTED_EDGE($,*,*,#163,.F.);
#276=ORIENTED_EDGE($,*,*,#206,.F.);
#277=ORIENTED_EDGE($,*,*,#203,.F.);
#278=ORIENTED_EDGE($,*,*,#200,.F.);
#279=ORIENTED_EDGE($,*,*,#197,.F.);
#280=ORIENTED_EDGE($,*,*,#194,.F.);
#281=ORIENTED_EDGE($,*,*,#191,.F.);
#282=ORIENTED_EDGE($,*,*,#188,.F.);
#283=ORIENTED_EDGE($,*,*,#187,.T.);
#284=ORIENTED_EDGE($,*,*,#190,.T.);
#285=ORIENTED_EDGE($,*,*,#193,.T.);
#286=ORIENTED_EDGE($,*,*,#196,.T.);
#287=ORIENTED_EDGE($,*,*,#199,.T.);
#288=ORIENTED_EDGE($,*,*,#202,.T.);
#289=ORIENTED_EDGE($,*,*,#205,.T.);
#290=ORIENTED_EDGE($,*,*,#207,.T.);
#291=ORIENTED_EDGE($,*,*,#165,.T.);
#292=ORIENTED_EDGE($,*,*,#169,.T.);
#293=ORIENTED_EDGE($,*,*,#172,.T.);
#294=ORIENTED_EDGE($,*,*,#175,.T.);
#295=ORIENTED_EDGE($,*,*,#178,.T.);
#296=ORIENTED_EDGE($,*,*,#181,.T.);
#297=ORIENTED_EDGE($,*,*,#184,.T.);
#298=PLANE($,#331);
#299=PLANE($,#332);
#300=PLANE($,#333);
#301=PLANE($,#337);
#302=PLANE($,#344);
#303=PLANE($,#345);
#304=PLANE($,#349);
#305=PLANE($,#350);
#306=PLANE($,#351);
#307=PLANE($,#352);
#308=PLANE($,#353);
#309=PLANE($,#354);
#310=PLANE($,#355);
#311=ADVANCED_FACE($,(#25),#298,.T.);
#312=ADVANCED_FACE($,(#26),#299,.T.);
#313=ADVANCED_FACE($,(#27),#300,.T.);
#314=ADVANCED_FACE($,(#28),#21,.T.);
#315=ADVANCED_FACE($,(#29),#301,.T.);
#316=ADVANCED_FACE($,(#30),#22,.F.);
#317=ADVANCED_FACE($,(#31),#23,.T.);
#318=ADVANCED_FACE($,(#32),#302,.T.);
#319=ADVANCED_FACE($,(#33),#303,.T.);
#320=ADVANCED_FACE($,(#34),#24,.T.);
#321=ADVANCED_FACE($,(#35),#304,.T.);
#322=ADVANCED_FACE($,(#36),#305,.T.);
#323=ADVANCED_FACE($,(#37),#306,.T.);
#324=ADVANCED_FACE($,(#38),#307,.T.);
#325=ADVANCED_FACE($,(#39),#308,.T.);
#326=ADVANCED_FACE($,(#40),#309,.T.);
#327=ADVANCED_FACE($,(#41),#310,.F.);
#328=CLOSED_SHELL($,(#311,#312,#313,#314,#315,#316,#317,#318,#319,#320,
#321,#322,#323,#324,#325,#326,#327));
#329=MANIFOLD_SOLID_BREP('T\X2\011B\X0\leso1',#328);
#330=AXIS2_PLACEMENT_3D('placement',#445,#356,#357);
#331=AXIS2_PLACEMENT_3D($,#446,#358,#359);
#332=AXIS2_PLACEMENT_3D($,#455,#364,#365);
#333=AXIS2_PLACEMENT_3D($,#461,#369,#370);
#334=AXIS2_PLACEMENT_3D($,#467,#374,#375);
#335=AXIS2_PLACEMENT_3D($,#469,#376,#377);
#336=AXIS2_PLACEMENT_3D($,#472,#379,#380);
#337=AXIS2_PLACEMENT_3D($,#473,#381,#382);
#338=AXIS2_PLACEMENT_3D($,#479,#386,#387);
#339=AXIS2_PLACEMENT_3D($,#481,#388,#389);
#340=AXIS2_PLACEMENT_3D($,#484,#391,#392);
#341=AXIS2_PLACEMENT_3D($,#485,#393,#394);
#342=AXIS2_PLACEMENT_3D($,#487,#395,#396);
#343=AXIS2_PLACEMENT_3D($,#490,#398,#399);
#344=AXIS2_PLACEMENT_3D($,#491,#400,#401);
#345=AXIS2_PLACEMENT_3D($,#497,#405,#406);
#346=AXIS2_PLACEMENT_3D($,#503,#410,#411);
#347=AXIS2_PLACEMENT_3D($,#505,#412,#413);
#348=AXIS2_PLACEMENT_3D($,#508,#415,#416);
#349=AXIS2_PLACEMENT_3D($,#509,#417,#418);
#350=AXIS2_PLACEMENT_3D($,#515,#422,#423);
#351=AXIS2_PLACEMENT_3D($,#521,#427,#428);
#352=AXIS2_PLACEMENT_3D($,#527,#432,#433);
#353=AXIS2_PLACEMENT_3D($,#533,#437,#438);
#354=AXIS2_PLACEMENT_3D($,#536,#441,#442);
#355=AXIS2_PLACEMENT_3D($,#537,#443,#444);
#356=DIRECTION('axis',(0.,0.,1.));
#357=DIRECTION('refdir',(1.,0.,0.));
#358=DIRECTION('center_axis',(-1.,-3.06602289310057E-016,0.));
#359=DIRECTION('ref_axis',(0.,0.,1.));
#360=DIRECTION($,(-3.06602289310057E-016,1.,0.));
#361=DIRECTION($,(0.,0.,1.));
#362=DIRECTION($,(-3.06602289310057E-016,1.,0.));
#363=DIRECTION($,(0.,0.,1.));
#364=DIRECTION('center_axis',(0.,-1.,0.));
#365=DIRECTION('ref_axis',(0.,0.,-1.));
#366=DIRECTION($,(-1.,0.,0.));
#367=DIRECTION($,(0.,0.,1.));
#368=DIRECTION($,(-1.,0.,0.));
#369=DIRECTION('center_axis',(-1.,0.,0.));
#370=DIRECTION('ref_axis',(0.,0.,1.));
#371=DIRECTION($,(0.,1.,0.));
#372=DIRECTION($,(0.,0.,1.));
#373=DIRECTION($,(0.,1.,0.));
#374=DIRECTION('center_axis',(0.,0.,1.));
#375=DIRECTION('ref_axis',(0.,1.,0.));
#376=DIRECTION('center_axis',(0.,0.,-1.));
#377=DIRECTION('ref_axis',(0.,1.,0.));
#378=DIRECTION($,(0.,0.,1.));
#379=DIRECTION('center_axis',(0.,0.,-1.));
#380=DIRECTION('ref_axis',(0.,1.,0.));
#381=DIRECTION('center_axis',(0.,1.,0.));
#382=DIRECTION('ref_axis',(0.,0.,1.));
#383=DIRECTION($,(1.,0.,0.));
#384=DIRECTION($,(0.,0.,1.));
#385=DIRECTION($,(1.,0.,0.));
#386=DIRECTION('center_axis',(0.,0.,1.));
#387=DIRECTION('ref_axis',(-0.368202687518364,0.929745546321279,0.));
#388=DIRECTION('center_axis',(0.,0.,1.));
#389=DIRECTION('ref_axis',(-0.368202687518364,0.929745546321279,0.));
#390=DIRECTION($,(0.,0.,1.));
#391=DIRECTION('center_axis',(0.,0.,1.));
#392=DIRECTION('ref_axis',(-0.368202687518364,0.929745546321279,0.));
#393=DIRECTION('center_axis',(0.,0.,1.));
#394=DIRECTION('ref_axis',(0.858385652069717,-0.513004943758681,0.));
#395=DIRECTION('center_axis',(0.,0.,-1.));
#396=DIRECTION('ref_axis',(0.858385652069717,-0.513004943758681,0.));
#397=DIRECTION($,(0.,0.,1.));
#398=DIRECTION('center_axis',(0.,0.,-1.));
#399=DIRECTION('ref_axis',(0.858385652069717,-0.513004943758681,0.));
#400=DIRECTION('center_axis',(0.949757723119525,-0.312986049808638,0.));
#401=DIRECTION('ref_axis',(0.,0.,-1.));
#402=DIRECTION($,(-0.312986049808638,-0.949757723119525,0.));
#403=DIRECTION($,(0.,0.,1.));
#404=DIRECTION($,(-0.312986049808638,-0.949757723119525,0.));
#405=DIRECTION('center_axis',(1.,0.,0.));
#406=DIRECTION('ref_axis',(0.,0.,-1.));
#407=DIRECTION($,(0.,-1.,0.));
#408=DIRECTION($,(0.,0.,1.));
#409=DIRECTION($,(0.,-1.,0.));
#410=DIRECTION('center_axis',(0.,0.,1.));
#411=DIRECTION('ref_axis',(-2.77555756156289E-016,-1.,0.));
#412=DIRECTION('center_axis',(0.,0.,-1.));
#413=DIRECTION('ref_axis',(-2.77555756156289E-016,-1.,0.));
#414=DIRECTION($,(0.,0.,1.));
#415=DIRECTION('center_axis',(0.,0.,-1.));
#416=DIRECTION('ref_axis',(-2.77555756156289E-016,-1.,0.));
#417=DIRECTION('center_axis',(1.,1.38777878078145E-016,0.));
#418=DIRECTION('ref_axis',(0.,0.,-1.));
#419=DIRECTION($,(1.38777878078145E-016,-1.,0.));
#420=DIRECTION($,(0.,0.,1.));
#421=DIRECTION($,(1.38777878078145E-016,-1.,0.));
#422=DIRECTION('center_axis',(0.,-1.,0.));
#423=DIRECTION('ref_axis',(0.,0.,-1.));
#424=DIRECTION($,(-1.,0.,0.));
#425=DIRECTION($,(0.,0.,1.));
#426=DIRECTION($,(-1.,0.,0.));
#427=DIRECTION('center_axis',(-0.980580658623221,-0.196116220476661,0.));
#428=DIRECTION('ref_axis',(0.,0.,1.));
#429=DIRECTION($,(-0.196116220476661,0.980580658623221,0.));
#430=DIRECTION($,(0.,0.,1.));
#431=DIRECTION($,(-0.196116220476661,0.980580658623221,0.));
#432=DIRECTION('center_axis',(-1.,-2.77555756156289E-016,0.));
#433=DIRECTION('ref_axis',(0.,0.,1.));
#434=DIRECTION($,(-2.77555756156289E-016,1.,0.));
#435=DIRECTION($,(0.,0.,1.));
#436=DIRECTION($,(-2.77555756156289E-016,1.,0.));
#437=DIRECTION('center_axis',(0.,1.,0.));
#438=DIRECTION('ref_axis',(0.,0.,1.));
#439=DIRECTION($,(1.,0.,0.));
#440=DIRECTION($,(1.,0.,0.));
#441=DIRECTION('center_axis',(0.,0.,1.));
#442=DIRECTION('ref_axis',(1.,0.,0.));
#443=DIRECTION('center_axis',(0.,0.,1.));
#444=DIRECTION('ref_axis',(1.,0.,0.));
#445=CARTESIAN_POINT('',(0.,0.,0.));
#446=CARTESIAN_POINT('Origin',(1.31838984219937E-015,-4.2999999940187,0.));
#447=CARTESIAN_POINT('',(1.31838984219937E-015,-4.2999999940187,100.));
#448=CARTESIAN_POINT('',(0.,0.,100.));
#449=CARTESIAN_POINT($,(1.17961196366423E-015,-3.57620157976724,100.));
#450=CARTESIAN_POINT('',(0.,0.,0.));
#451=CARTESIAN_POINT($,(0.,0.,0.));
#452=CARTESIAN_POINT('',(1.31838984219937E-015,-4.2999999940187,0.));
#453=CARTESIAN_POINT($,(1.17961196366423E-015,-3.57620157976724,0.));
#454=CARTESIAN_POINT($,(1.31838984219937E-015,-4.2999999940187,0.));
#455=CARTESIAN_POINT('Origin',(0.,0.,0.));
#456=CARTESIAN_POINT('',(-2.,0.,100.));
#457=CARTESIAN_POINT($,(0.325000037866038,0.,100.));
#458=CARTESIAN_POINT('',(-2.,0.,0.));
#459=CARTESIAN_POINT($,(-2.,0.,0.));
#460=CARTESIAN_POINT($,(0.325000037866038,0.,0.));
#461=CARTESIAN_POINT('Origin',(-2.,0.,0.));
#462=CARTESIAN_POINT('',(-2.,1.,100.));
#463=CARTESIAN_POINT($,(-2.,-1.42620158275788,100.));
#464=CARTESIAN_POINT('',(-2.,1.,0.));
#465=CARTESIAN_POINT($,(-2.,1.,0.));
#466=CARTESIAN_POINT($,(-2.,-1.42620158275788,0.));
#467=CARTESIAN_POINT('Origin',(-1.,1.,0.));
#468=CARTESIAN_POINT('',(-1.,2.,100.));
#469=CARTESIAN_POINT('Origin',(-1.,1.,100.));
#470=CARTESIAN_POINT('',(-1.,2.,0.));
#471=CARTESIAN_POINT($,(-1.,2.,0.));
#472=CARTESIAN_POINT('Origin',(-1.,1.,0.));
#473=CARTESIAN_POINT('Origin',(-1.,2.,0.));
#474=CARTESIAN_POINT('',(0.,2.,100.));
#475=CARTESIAN_POINT($,(-0.174999962133962,2.,100.));
#476=CARTESIAN_POINT('',(0.,2.,0.));
#477=CARTESIAN_POINT($,(0.,2.,0.));
#478=CARTESIAN_POINT($,(-0.174999962133962,2.,0.));
#479=CARTESIAN_POINT('Origin',(-1.68187476323563,6.24688798750416,0.));
#480=CARTESIAN_POINT('',(2.55032855535826,4.52839580896541,100.));
#481=CARTESIAN_POINT('Origin',(-1.68187476323563,6.24688798750416,100.));
#482=CARTESIAN_POINT('',(2.55032855535826,4.52839580896541,0.));
#483=CARTESIAN_POINT($,(2.55032855535826,4.52839580896541,0.));
#484=CARTESIAN_POINT('Origin',(-1.68187476323563,6.24688798750416,0.));
#485=CARTESIAN_POINT('Origin',(2.80000015146415,4.09519366896846,0.));
#486=CARTESIAN_POINT('',(3.22919297749901,3.83869119708912,100.));
#487=CARTESIAN_POINT('Origin',(2.80000015146415,4.09519366896846,100.));
#488=CARTESIAN_POINT('',(3.22919297749901,3.83869119708912,0.));
#489=CARTESIAN_POINT($,(3.22919297749901,3.83869119708912,0.));
#490=CARTESIAN_POINT('Origin',(2.80000015146415,4.09519366896846,0.));
#491=CARTESIAN_POINT('Origin',(3.22919297749901,3.83869119708912,0.));
#492=CARTESIAN_POINT('',(2.,0.108699,100.));
#493=CARTESIAN_POINT($,(2.1083633379234,0.437528087298567,100.));
#494=CARTESIAN_POINT('',(2.,0.108699,0.));
#495=CARTESIAN_POINT($,(2.,0.108699,0.));
#496=CARTESIAN_POINT($,(2.1083633379234,0.437528087298567,0.));
#497=CARTESIAN_POINT('Origin',(2.,0.108699,0.));
#498=CARTESIAN_POINT('',(2.,-7.3,100.));
#499=CARTESIAN_POINT($,(2.,-1.37185208275788,100.));
#500=CARTESIAN_POINT('',(2.,-7.3,0.));
#501=CARTESIAN_POINT($,(2.,-7.3,0.));
#502=CARTESIAN_POINT($,(2.,-1.37185208275788,0.));
#503=CARTESIAN_POINT('Origin',(1.,-7.3,0.));
#504=CARTESIAN_POINT('',(1.,-8.3,100.));
#505=CARTESIAN_POINT('Origin',(1.,-7.3,100.));
#506=CARTESIAN_POINT('',(1.,-8.3,0.));
#507=CARTESIAN_POINT($,(1.,-8.3,0.));
#508=CARTESIAN_POINT('Origin',(1.,-7.3,0.));
#509=CARTESIAN_POINT('Origin',(1.,-8.3,0.));
#510=CARTESIAN_POINT('',(1.,-10.3,100.));
#511=CARTESIAN_POINT($,(0.999999999999999,-5.57620158275788,100.));
#512=CARTESIAN_POINT('',(1.,-10.3,0.));
#513=CARTESIAN_POINT($,(1.,-10.3,0.));
#514=CARTESIAN_POINT($,(0.999999999999999,-5.57620158275788,0.));
#515=CARTESIAN_POINT('Origin',(1.,-10.3,0.));
#516=CARTESIAN_POINT('',(4.83651014654418E-007,-10.3,100.));
#517=CARTESIAN_POINT($,(0.825000037866038,-10.3,100.));
#518=CARTESIAN_POINT('',(4.83651014654418E-007,-10.3,0.));
#519=CARTESIAN_POINT($,(4.83651014654418E-007,-10.3,0.));
#520=CARTESIAN_POINT($,(0.825000037866038,-10.3,0.));
#521=CARTESIAN_POINT('Origin',(4.83651014654418E-007,-10.3,0.));
#522=CARTESIAN_POINT('',(-0.999999970093521,-5.2999999940187,100.));
#523=CARTESIAN_POINT($,(-0.703614892701545,-6.78192471033611,100.));
#524=CARTESIAN_POINT('',(-0.999999970093521,-5.2999999940187,0.));
#525=CARTESIAN_POINT($,(-0.999999970093521,-5.2999999940187,0.));
#526=CARTESIAN_POINT($,(-0.703614892701545,-6.78192471033611,0.));
#527=CARTESIAN_POINT('Origin',(-0.999999970093521,-5.2999999940187,0.));
#528=CARTESIAN_POINT('',(-0.999999970093521,-4.2999999940187,100.));
#529=CARTESIAN_POINT($,(-0.999999970093522,-4.07620157976724,100.));
#530=CARTESIAN_POINT('',(-0.999999970093521,-4.2999999940187,0.));
#531=CARTESIAN_POINT($,(-0.999999970093521,-4.2999999940187,0.));
#532=CARTESIAN_POINT($,(-0.999999970093522,-4.07620157976724,0.));
#533=CARTESIAN_POINT('Origin',(-0.999999970093521,-4.2999999940187,0.));
#534=CARTESIAN_POINT($,(-0.174999947180723,-4.2999999940187,100.));
#535=CARTESIAN_POINT($,(-0.174999947180723,-4.2999999940187,0.));
#536=CARTESIAN_POINT('Origin',(0.650000075732075,-2.85240316551577,100.));
#537=CARTESIAN_POINT('Origin',(0.650000075732075,-2.85240316551577,0.));
#538=UNCERTAINTY_MEASURE_WITH_UNIT(LENGTH_MEASURE(0.01),#540,
'DISTANCE_ACCURACY_VALUE',
'Maximum model space distance between geometric entities at asserted c
onnectivities');
#539=(
GEOMETRIC_REPRESENTATION_CONTEXT(3)
GLOBAL_UNCERTAINTY_ASSIGNED_CONTEXT((#538))
GLOBAL_UNIT_ASSIGNED_CONTEXT((#540,#543,#541))
REPRESENTATION_CONTEXT('','3D')
);
#540=(
LENGTH_UNIT()
NAMED_UNIT(*)
SI_UNIT(.MILLI.,.METRE.)
);
#541=(
NAMED_UNIT(*)
SI_UNIT($,.STERADIAN.)
SOLID_ANGLE_UNIT()
);
#542=DIMENSIONAL_EXPONENTS(0.,0.,0.,0.,0.,0.,0.);
#543=(
CONVERSION_BASED_UNIT('degree',#545)
NAMED_UNIT(#542)
PLANE_ANGLE_UNIT()
);
#544=(
NAMED_UNIT(*)
PLANE_ANGLE_UNIT()
SI_UNIT($,.RADIAN.)
);
#545=PLANE_ANGLE_MEASURE_WITH_UNIT(PLANE_ANGLE_MEASURE(0.01745329252),#544);
#546=SHAPE_DEFINITION_REPRESENTATION(#547,#548);
#547=PRODUCT_DEFINITION_SHAPE('',$,#550);
#548=SHAPE_REPRESENTATION('',(#330),#539);
#549=DESIGN_CONTEXT('3D Mechanical Parts',#553,'design');
#550=PRODUCT_DEFINITION('-700005-15','-700005-15',#551,#549);
#551=PRODUCT_DEFINITION_FORMATION('',$,#555);
#552=APPLICATION_PROTOCOL_DEFINITION('international standard',
'ap203_configuration_controlled_3d_design_of_mechanical_parts_and_asse
mblies_mim_lf',2004,#553);
#553=APPLICATION_CONTEXT(
'Configuration Controlled 3D Design of Mechanical Parts and Assemblies');
#554=MECHANICAL_CONTEXT('3D Mechanical Parts',#553,'mechanical');
#555=PRODUCT('-700005-15','-700005-15',$,(#554));
#556=PRESENTATION_STYLE_ASSIGNMENT((#557));
#557=SURFACE_STYLE_USAGE(.BOTH.,#558);
#558=SURFACE_SIDE_STYLE($,(#559));
#559=SURFACE_STYLE_FILL_AREA(#560);
#560=FILL_AREA_STYLE($,(#561));
#561=FILL_AREA_STYLE_COLOUR($,#562);
#562=COLOUR_RGB('',0.258823529411765,0.258823529411765,0.258823529411765);
ENDSEC;
END-ISO-10303-21;
