ISO-10303-21;
HEADER;
/* Generated by software containing ST-Developer
 * from STEP Tools, Inc. (www.steptools.com) 
 */

FILE_DESCRIPTION(
/* description */ ('Gumov\X\E9 t\X2\011B\X0\sn\X2\011B\X0\n\X\ED panel
 6 mm'),
/* implementation_level */ '2;1');

FILE_NAME(
/* name */ 'C:\\Vault_pracovn\X\ED\\Zak\X\E1zky\\Kal\X\E1b_pokus\\6999
99.stp',
/* time_stamp */ '2014-08-19T08:52:56+02:00',
/* author */ ('jank'),
/* organization */ (''),
/* preprocessor_version */ 'ST-DEVELOPER v15.2',
/* originating_system */ 'Autodesk Inventor 2014',
/* authorisation */ '');

FILE_SCHEMA (('CONFIG_CONTROL_DESIGN'));
ENDSEC;

DATA;
#10=SHAPE_REPRESENTATION_RELATIONSHIP('SRR','None',#527,#11);
#11=ADVANCED_BREP_SHAPE_REPRESENTATION($,(#296),#518);
#12=STYLED_ITEM($,(#535),#296);
#13=CIRCLE($,#300,0.300000000000007);
#14=CIRCLE($,#301,0.300000000000007);
#15=CIRCLE($,#304,0.3);
#16=CIRCLE($,#305,0.3);
#17=CIRCLE($,#308,0.455043172376799);
#18=CIRCLE($,#309,0.455043172376799);
#19=CIRCLE($,#311,12.8137854951224);
#20=CIRCLE($,#312,12.8137854951224);
#21=CIRCLE($,#314,0.505712805965443);
#22=CIRCLE($,#315,0.505712805965443);
#23=CIRCLE($,#317,11.0703300967802);
#24=CIRCLE($,#318,11.0703300967802);
#25=CIRCLE($,#320,0.499999999999985);
#26=CIRCLE($,#321,0.499999999999985);
#27=CIRCLE($,#323,45.2852944516378);
#28=CIRCLE($,#324,45.2852944516378);
#29=CIRCLE($,#326,0.300000000000007);
#30=CIRCLE($,#327,0.300000000000007);
#31=CIRCLE($,#330,0.300000000000007);
#32=CIRCLE($,#331,0.300000000000007);
#33=CYLINDRICAL_SURFACE($,#299,0.300000000000007);
#34=CYLINDRICAL_SURFACE($,#303,0.3);
#35=CYLINDRICAL_SURFACE($,#307,0.455043172376799);
#36=CYLINDRICAL_SURFACE($,#310,12.8137854951224);
#37=CYLINDRICAL_SURFACE($,#313,0.505712805965443);
#38=CYLINDRICAL_SURFACE($,#316,11.0703300967802);
#39=CYLINDRICAL_SURFACE($,#319,0.499999999999985);
#40=CYLINDRICAL_SURFACE($,#322,45.2852944516378);
#41=CYLINDRICAL_SURFACE($,#325,0.300000000000007);
#42=CYLINDRICAL_SURFACE($,#329,0.300000000000007);
#43=FACE_OUTER_BOUND($,#59,.T.);
#44=FACE_OUTER_BOUND($,#60,.T.);
#45=FACE_OUTER_BOUND($,#61,.T.);
#46=FACE_OUTER_BOUND($,#62,.T.);
#47=FACE_OUTER_BOUND($,#63,.T.);
#48=FACE_OUTER_BOUND($,#64,.T.);
#49=FACE_OUTER_BOUND($,#65,.T.);
#50=FACE_OUTER_BOUND($,#66,.T.);
#51=FACE_OUTER_BOUND($,#67,.T.);
#52=FACE_OUTER_BOUND($,#68,.T.);
#53=FACE_OUTER_BOUND($,#69,.T.);
#54=FACE_OUTER_BOUND($,#70,.T.);
#55=FACE_OUTER_BOUND($,#71,.T.);
#56=FACE_OUTER_BOUND($,#72,.T.);
#57=FACE_OUTER_BOUND($,#73,.T.);
#58=FACE_OUTER_BOUND($,#74,.T.);
#59=EDGE_LOOP($,(#189,#190,#191,#192));
#60=EDGE_LOOP($,(#193,#194,#195,#196));
#61=EDGE_LOOP($,(#197,#198,#199,#200));
#62=EDGE_LOOP($,(#201,#202,#203,#204));
#63=EDGE_LOOP($,(#205,#206,#207,#208));
#64=EDGE_LOOP($,(#209,#210,#211,#212));
#65=EDGE_LOOP($,(#213,#214,#215,#216));
#66=EDGE_LOOP($,(#217,#218,#219,#220));
#67=EDGE_LOOP($,(#221,#222,#223,#224));
#68=EDGE_LOOP($,(#225,#226,#227,#228));
#69=EDGE_LOOP($,(#229,#230,#231,#232));
#70=EDGE_LOOP($,(#233,#234,#235,#236));
#71=EDGE_LOOP($,(#237,#238,#239,#240));
#72=EDGE_LOOP($,(#241,#242,#243,#244));
#73=EDGE_LOOP($,(#245,#246,#247,#248,#249,#250,#251,#252,#253,#254,#255,
#256,#257,#258));
#74=EDGE_LOOP($,(#259,#260,#261,#262,#263,#264,#265,#266,#267,#268,#269,
#270,#271,#272));
#75=LINE($,#434,#97);
#76=LINE($,#436,#98);
#77=LINE($,#438,#99);
#78=LINE($,#439,#100);
#79=LINE($,#444,#101);
#80=LINE($,#448,#102);
#81=LINE($,#450,#103);
#82=LINE($,#451,#104);
#83=LINE($,#456,#105);
#84=LINE($,#460,#106);
#85=LINE($,#462,#107);
#86=LINE($,#463,#108);
#87=LINE($,#468,#109);
#88=LINE($,#474,#110);
#89=LINE($,#480,#111);
#90=LINE($,#486,#112);
#91=LINE($,#492,#113);
#92=LINE($,#498,#114);
#93=LINE($,#504,#115);
#94=LINE($,#508,#116);
#95=LINE($,#510,#117);
#96=LINE($,#511,#118);
#97=VECTOR($,#338,3.30000000000001);
#98=VECTOR($,#339,100.);
#99=VECTOR($,#340,3.30000000000001);
#100=VECTOR($,#341,100.);
#101=VECTOR($,#346,100.);
#102=VECTOR($,#351,0.602079728939617);
#103=VECTOR($,#352,100.);
#104=VECTOR($,#353,0.602079728939617);
#105=VECTOR($,#358,100.);
#106=VECTOR($,#363,1.01778141114085);
#107=VECTOR($,#364,100.);
#108=VECTOR($,#365,1.01778141114085);
#109=VECTOR($,#370,100.);
#110=VECTOR($,#377,100.);
#111=VECTOR($,#384,100.);
#112=VECTOR($,#391,100.);
#113=VECTOR($,#398,100.);
#114=VECTOR($,#405,100.);
#115=VECTOR($,#412,100.);
#116=VECTOR($,#417,0.501414180979641);
#117=VECTOR($,#418,100.);
#118=VECTOR($,#419,0.501414180979641);
#119=VERTEX_POINT($,#432);
#120=VERTEX_POINT($,#433);
#121=VERTEX_POINT($,#435);
#122=VERTEX_POINT($,#437);
#123=VERTEX_POINT($,#441);
#124=VERTEX_POINT($,#443);
#125=VERTEX_POINT($,#447);
#126=VERTEX_POINT($,#449);
#127=VERTEX_POINT($,#453);
#128=VERTEX_POINT($,#455);
#129=VERTEX_POINT($,#459);
#130=VERTEX_POINT($,#461);
#131=VERTEX_POINT($,#465);
#132=VERTEX_POINT($,#467);
#133=VERTEX_POINT($,#471);
#134=VERTEX_POINT($,#473);
#135=VERTEX_POINT($,#477);
#136=VERTEX_POINT($,#479);
#137=VERTEX_POINT($,#483);
#138=VERTEX_POINT($,#485);
#139=VERTEX_POINT($,#489);
#140=VERTEX_POINT($,#491);
#141=VERTEX_POINT($,#495);
#142=VERTEX_POINT($,#497);
#143=VERTEX_POINT($,#501);
#144=VERTEX_POINT($,#503);
#145=VERTEX_POINT($,#507);
#146=VERTEX_POINT($,#509);
#147=EDGE_CURVE($,#119,#120,#75,.T.);
#148=EDGE_CURVE($,#121,#120,#76,.T.);
#149=EDGE_CURVE($,#122,#121,#77,.T.);
#150=EDGE_CURVE($,#122,#119,#78,.T.);
#151=EDGE_CURVE($,#120,#123,#13,.T.);
#152=EDGE_CURVE($,#124,#123,#79,.T.);
#153=EDGE_CURVE($,#121,#124,#14,.T.);
#154=EDGE_CURVE($,#123,#125,#80,.T.);
#155=EDGE_CURVE($,#126,#125,#81,.T.);
#156=EDGE_CURVE($,#124,#126,#82,.T.);
#157=EDGE_CURVE($,#125,#127,#15,.T.);
#158=EDGE_CURVE($,#128,#127,#83,.T.);
#159=EDGE_CURVE($,#126,#128,#16,.T.);
#160=EDGE_CURVE($,#127,#129,#84,.T.);
#161=EDGE_CURVE($,#130,#129,#85,.T.);
#162=EDGE_CURVE($,#128,#130,#86,.T.);
#163=EDGE_CURVE($,#129,#131,#17,.T.);
#164=EDGE_CURVE($,#132,#131,#87,.T.);
#165=EDGE_CURVE($,#130,#132,#18,.T.);
#166=EDGE_CURVE($,#131,#133,#19,.T.);
#167=EDGE_CURVE($,#134,#133,#88,.T.);
#168=EDGE_CURVE($,#132,#134,#20,.T.);
#169=EDGE_CURVE($,#133,#135,#21,.T.);
#170=EDGE_CURVE($,#136,#135,#89,.T.);
#171=EDGE_CURVE($,#134,#136,#22,.T.);
#172=EDGE_CURVE($,#135,#137,#23,.T.);
#173=EDGE_CURVE($,#138,#137,#90,.T.);
#174=EDGE_CURVE($,#136,#138,#24,.T.);
#175=EDGE_CURVE($,#137,#139,#25,.T.);
#176=EDGE_CURVE($,#140,#139,#91,.T.);
#177=EDGE_CURVE($,#138,#140,#26,.T.);
#178=EDGE_CURVE($,#139,#141,#27,.T.);
#179=EDGE_CURVE($,#142,#141,#92,.T.);
#180=EDGE_CURVE($,#140,#142,#28,.T.);
#181=EDGE_CURVE($,#141,#143,#29,.T.);
#182=EDGE_CURVE($,#144,#143,#93,.T.);
#183=EDGE_CURVE($,#142,#144,#30,.T.);
#184=EDGE_CURVE($,#143,#145,#94,.T.);
#185=EDGE_CURVE($,#146,#145,#95,.T.);
#186=EDGE_CURVE($,#144,#146,#96,.T.);
#187=EDGE_CURVE($,#145,#119,#31,.T.);
#188=EDGE_CURVE($,#146,#122,#32,.T.);
#189=ORIENTED_EDGE($,*,*,#147,.T.);
#190=ORIENTED_EDGE($,*,*,#148,.F.);
#191=ORIENTED_EDGE($,*,*,#149,.F.);
#192=ORIENTED_EDGE($,*,*,#150,.T.);
#193=ORIENTED_EDGE($,*,*,#151,.T.);
#194=ORIENTED_EDGE($,*,*,#152,.F.);
#195=ORIENTED_EDGE($,*,*,#153,.F.);
#196=ORIENTED_EDGE($,*,*,#148,.T.);
#197=ORIENTED_EDGE($,*,*,#154,.T.);
#198=ORIENTED_EDGE($,*,*,#155,.F.);
#199=ORIENTED_EDGE($,*,*,#156,.F.);
#200=ORIENTED_EDGE($,*,*,#152,.T.);
#201=ORIENTED_EDGE($,*,*,#157,.T.);
#202=ORIENTED_EDGE($,*,*,#158,.F.);
#203=ORIENTED_EDGE($,*,*,#159,.F.);
#204=ORIENTED_EDGE($,*,*,#155,.T.);
#205=ORIENTED_EDGE($,*,*,#160,.T.);
#206=ORIENTED_EDGE($,*,*,#161,.F.);
#207=ORIENTED_EDGE($,*,*,#162,.F.);
#208=ORIENTED_EDGE($,*,*,#158,.T.);
#209=ORIENTED_EDGE($,*,*,#163,.T.);
#210=ORIENTED_EDGE($,*,*,#164,.F.);
#211=ORIENTED_EDGE($,*,*,#165,.F.);
#212=ORIENTED_EDGE($,*,*,#161,.T.);
#213=ORIENTED_EDGE($,*,*,#166,.T.);
#214=ORIENTED_EDGE($,*,*,#167,.F.);
#215=ORIENTED_EDGE($,*,*,#168,.F.);
#216=ORIENTED_EDGE($,*,*,#164,.T.);
#217=ORIENTED_EDGE($,*,*,#169,.T.);
#218=ORIENTED_EDGE($,*,*,#170,.F.);
#219=ORIENTED_EDGE($,*,*,#171,.F.);
#220=ORIENTED_EDGE($,*,*,#167,.T.);
#221=ORIENTED_EDGE($,*,*,#172,.T.);
#222=ORIENTED_EDGE($,*,*,#173,.F.);
#223=ORIENTED_EDGE($,*,*,#174,.F.);
#224=ORIENTED_EDGE($,*,*,#170,.T.);
#225=ORIENTED_EDGE($,*,*,#175,.T.);
#226=ORIENTED_EDGE($,*,*,#176,.F.);
#227=ORIENTED_EDGE($,*,*,#177,.F.);
#228=ORIENTED_EDGE($,*,*,#173,.T.);
#229=ORIENTED_EDGE($,*,*,#178,.T.);
#230=ORIENTED_EDGE($,*,*,#179,.F.);
#231=ORIENTED_EDGE($,*,*,#180,.F.);
#232=ORIENTED_EDGE($,*,*,#176,.T.);
#233=ORIENTED_EDGE($,*,*,#181,.T.);
#234=ORIENTED_EDGE($,*,*,#182,.F.);
#235=ORIENTED_EDGE($,*,*,#183,.F.);
#236=ORIENTED_EDGE($,*,*,#179,.T.);
#237=ORIENTED_EDGE($,*,*,#184,.T.);
#238=ORIENTED_EDGE($,*,*,#185,.F.);
#239=ORIENTED_EDGE($,*,*,#186,.F.);
#240=ORIENTED_EDGE($,*,*,#182,.T.);
#241=ORIENTED_EDGE($,*,*,#187,.T.);
#242=ORIENTED_EDGE($,*,*,#150,.F.);
#243=ORIENTED_EDGE($,*,*,#188,.F.);
#244=ORIENTED_EDGE($,*,*,#185,.T.);
#245=ORIENTED_EDGE($,*,*,#169,.F.);
#246=ORIENTED_EDGE($,*,*,#166,.F.);
#247=ORIENTED_EDGE($,*,*,#163,.F.);
#248=ORIENTED_EDGE($,*,*,#160,.F.);
#249=ORIENTED_EDGE($,*,*,#157,.F.);
#250=ORIENTED_EDGE($,*,*,#154,.F.);
#251=ORIENTED_EDGE($,*,*,#151,.F.);
#252=ORIENTED_EDGE($,*,*,#147,.F.);
#253=ORIENTED_EDGE($,*,*,#187,.F.);
#254=ORIENTED_EDGE($,*,*,#184,.F.);
#255=ORIENTED_EDGE($,*,*,#181,.F.);
#256=ORIENTED_EDGE($,*,*,#178,.F.);
#257=ORIENTED_EDGE($,*,*,#175,.F.);
#258=ORIENTED_EDGE($,*,*,#172,.F.);
#259=ORIENTED_EDGE($,*,*,#171,.T.);
#260=ORIENTED_EDGE($,*,*,#174,.T.);
#261=ORIENTED_EDGE($,*,*,#177,.T.);
#262=ORIENTED_EDGE($,*,*,#180,.T.);
#263=ORIENTED_EDGE($,*,*,#183,.T.);
#264=ORIENTED_EDGE($,*,*,#186,.T.);
#265=ORIENTED_EDGE($,*,*,#188,.T.);
#266=ORIENTED_EDGE($,*,*,#149,.T.);
#267=ORIENTED_EDGE($,*,*,#153,.T.);
#268=ORIENTED_EDGE($,*,*,#156,.T.);
#269=ORIENTED_EDGE($,*,*,#159,.T.);
#270=ORIENTED_EDGE($,*,*,#162,.T.);
#271=ORIENTED_EDGE($,*,*,#165,.T.);
#272=ORIENTED_EDGE($,*,*,#168,.T.);
#273=PLANE($,#298);
#274=PLANE($,#302);
#275=PLANE($,#306);
#276=PLANE($,#328);
#277=PLANE($,#332);
#278=PLANE($,#333);
#279=ADVANCED_FACE($,(#43),#273,.T.);
#280=ADVANCED_FACE($,(#44),#33,.F.);
#281=ADVANCED_FACE($,(#45),#274,.T.);
#282=ADVANCED_FACE($,(#46),#34,.T.);
#283=ADVANCED_FACE($,(#47),#275,.T.);
#284=ADVANCED_FACE($,(#48),#35,.T.);
#285=ADVANCED_FACE($,(#49),#36,.T.);
#286=ADVANCED_FACE($,(#50),#37,.T.);
#287=ADVANCED_FACE($,(#51),#38,.F.);
#288=ADVANCED_FACE($,(#52),#39,.T.);
#289=ADVANCED_FACE($,(#53),#40,.T.);
#290=ADVANCED_FACE($,(#54),#41,.T.);
#291=ADVANCED_FACE($,(#55),#276,.T.);
#292=ADVANCED_FACE($,(#56),#42,.F.);
#293=ADVANCED_FACE($,(#57),#277,.T.);
#294=ADVANCED_FACE($,(#58),#278,.F.);
#295=CLOSED_SHELL($,(#279,#280,#281,#282,#283,#284,#285,#286,#287,#288,
#289,#290,#291,#292,#293,#294));
#296=MANIFOLD_SOLID_BREP('T\X2\011B\X0\leso1',#295);
#297=AXIS2_PLACEMENT_3D('placement',#430,#334,#335);
#298=AXIS2_PLACEMENT_3D($,#431,#336,#337);
#299=AXIS2_PLACEMENT_3D($,#440,#342,#343);
#300=AXIS2_PLACEMENT_3D($,#442,#344,#345);
#301=AXIS2_PLACEMENT_3D($,#445,#347,#348);
#302=AXIS2_PLACEMENT_3D($,#446,#349,#350);
#303=AXIS2_PLACEMENT_3D($,#452,#354,#355);
#304=AXIS2_PLACEMENT_3D($,#454,#356,#357);
#305=AXIS2_PLACEMENT_3D($,#457,#359,#360);
#306=AXIS2_PLACEMENT_3D($,#458,#361,#362);
#307=AXIS2_PLACEMENT_3D($,#464,#366,#367);
#308=AXIS2_PLACEMENT_3D($,#466,#368,#369);
#309=AXIS2_PLACEMENT_3D($,#469,#371,#372);
#310=AXIS2_PLACEMENT_3D($,#470,#373,#374);
#311=AXIS2_PLACEMENT_3D($,#472,#375,#376);
#312=AXIS2_PLACEMENT_3D($,#475,#378,#379);
#313=AXIS2_PLACEMENT_3D($,#476,#380,#381);
#314=AXIS2_PLACEMENT_3D($,#478,#382,#383);
#315=AXIS2_PLACEMENT_3D($,#481,#385,#386);
#316=AXIS2_PLACEMENT_3D($,#482,#387,#388);
#317=AXIS2_PLACEMENT_3D($,#484,#389,#390);
#318=AXIS2_PLACEMENT_3D($,#487,#392,#393);
#319=AXIS2_PLACEMENT_3D($,#488,#394,#395);
#320=AXIS2_PLACEMENT_3D($,#490,#396,#397);
#321=AXIS2_PLACEMENT_3D($,#493,#399,#400);
#322=AXIS2_PLACEMENT_3D($,#494,#401,#402);
#323=AXIS2_PLACEMENT_3D($,#496,#403,#404);
#324=AXIS2_PLACEMENT_3D($,#499,#406,#407);
#325=AXIS2_PLACEMENT_3D($,#500,#408,#409);
#326=AXIS2_PLACEMENT_3D($,#502,#410,#411);
#327=AXIS2_PLACEMENT_3D($,#505,#413,#414);
#328=AXIS2_PLACEMENT_3D($,#506,#415,#416);
#329=AXIS2_PLACEMENT_3D($,#512,#420,#421);
#330=AXIS2_PLACEMENT_3D($,#513,#422,#423);
#331=AXIS2_PLACEMENT_3D($,#514,#424,#425);
#332=AXIS2_PLACEMENT_3D($,#515,#426,#427);
#333=AXIS2_PLACEMENT_3D($,#516,#428,#429);
#334=DIRECTION('axis',(0.,0.,1.));
#335=DIRECTION('refdir',(1.,0.,0.));
#336=DIRECTION('center_axis',(-1.,0.,0.));
#337=DIRECTION('ref_axis',(0.,0.,1.));
#338=DIRECTION($,(0.,1.,0.));
#339=DIRECTION($,(0.,0.,1.));
#340=DIRECTION($,(0.,1.,0.));
#341=DIRECTION($,(0.,0.,1.));
#342=DIRECTION('center_axis',(0.,0.,1.));
#343=DIRECTION('ref_axis',(-1.,7.10080142833197E-014,0.));
#344=DIRECTION('center_axis',(0.,0.,1.));
#345=DIRECTION('ref_axis',(-1.,7.10080142833197E-014,0.));
#346=DIRECTION($,(0.,0.,1.));
#347=DIRECTION('center_axis',(0.,0.,1.));
#348=DIRECTION('ref_axis',(-1.,7.10080142833197E-014,0.));
#349=DIRECTION('center_axis',(0.0830454798539002,-0.996545758244866,0.));
#350=DIRECTION('ref_axis',(0.,0.,-1.));
#351=DIRECTION($,(-0.996545758244866,-0.0830454798539001,0.));
#352=DIRECTION($,(0.,0.,1.));
#353=DIRECTION($,(-0.996545758244866,-0.0830454798539001,0.));
#354=DIRECTION('center_axis',(0.,0.,1.));
#355=DIRECTION('ref_axis',(-1.,3.68917859224401E-014,0.));
#356=DIRECTION('center_axis',(0.,0.,-1.));
#357=DIRECTION('ref_axis',(-1.,3.68917859224401E-014,0.));
#358=DIRECTION($,(0.,0.,1.));
#359=DIRECTION('center_axis',(0.,0.,-1.));
#360=DIRECTION('ref_axis',(-1.,3.68917859224401E-014,0.));
#361=DIRECTION('center_axis',(-1.,0.,0.));
#362=DIRECTION('ref_axis',(0.,0.,1.));
#363=DIRECTION($,(0.,1.,0.));
#364=DIRECTION($,(0.,0.,1.));
#365=DIRECTION($,(0.,1.,0.));
#366=DIRECTION('center_axis',(0.,0.,1.));
#367=DIRECTION('ref_axis',(-0.70605436183993,0.708157636495441,0.));
#368=DIRECTION('center_axis',(0.,0.,-1.));
#369=DIRECTION('ref_axis',(-0.70605436183993,0.708157636495441,0.));
#370=DIRECTION($,(0.,0.,1.));
#371=DIRECTION('center_axis',(0.,0.,-1.));
#372=DIRECTION('ref_axis',(-0.70605436183993,0.708157636495441,0.));
#373=DIRECTION('center_axis',(0.,0.,1.));
#374=DIRECTION('ref_axis',(-0.22138810951456,0.9751857797187,0.));
#375=DIRECTION('center_axis',(0.,0.,-1.));
#376=DIRECTION('ref_axis',(-0.22138810951456,0.9751857797187,0.));
#377=DIRECTION($,(0.,0.,1.));
#378=DIRECTION('center_axis',(0.,0.,-1.));
#379=DIRECTION('ref_axis',(-0.22138810951456,0.9751857797187,0.));
#380=DIRECTION('center_axis',(0.,0.,1.));
#381=DIRECTION('ref_axis',(0.80478528343647,-0.59356604313596,0.));
#382=DIRECTION('center_axis',(0.,0.,-1.));
#383=DIRECTION('ref_axis',(0.80478528343647,-0.59356604313596,0.));
#384=DIRECTION($,(0.,0.,1.));
#385=DIRECTION('center_axis',(0.,0.,-1.));
#386=DIRECTION('ref_axis',(0.80478528343647,-0.59356604313596,0.));
#387=DIRECTION('center_axis',(0.,0.,1.));
#388=DIRECTION('ref_axis',(0.80478528343647,-0.59356604313596,0.));
#389=DIRECTION('center_axis',(0.,0.,1.));
#390=DIRECTION('ref_axis',(0.80478528343647,-0.59356604313596,0.));
#391=DIRECTION($,(0.,0.,1.));
#392=DIRECTION('center_axis',(0.,0.,1.));
#393=DIRECTION('ref_axis',(0.80478528343647,-0.59356604313596,0.));
#394=DIRECTION('center_axis',(0.,0.,1.));
#395=DIRECTION('ref_axis',(-0.52118729367216,-0.853442326648198,0.));
#396=DIRECTION('center_axis',(0.,0.,-1.));
#397=DIRECTION('ref_axis',(-0.52118729367216,-0.853442326648198,0.));
#398=DIRECTION($,(0.,0.,1.));
#399=DIRECTION('center_axis',(0.,0.,-1.));
#400=DIRECTION('ref_axis',(-0.52118729367216,-0.853442326648198,0.));
#401=DIRECTION('center_axis',(0.,0.,1.));
#402=DIRECTION('ref_axis',(-0.807880088663083,-0.589346894741738,0.));
#403=DIRECTION('center_axis',(0.,0.,-1.));
#404=DIRECTION('ref_axis',(-0.807880088663083,-0.589346894741738,0.));
#405=DIRECTION($,(0.,0.,1.));
#406=DIRECTION('center_axis',(0.,0.,-1.));
#407=DIRECTION('ref_axis',(-0.807880088663083,-0.589346894741738,0.));
#408=DIRECTION('center_axis',(0.,0.,1.));
#409=DIRECTION('ref_axis',(-6.93889390390706E-015,1.,0.));
#410=DIRECTION('center_axis',(0.,0.,-1.));
#411=DIRECTION('ref_axis',(-6.93889390390706E-015,1.,0.));
#412=DIRECTION($,(0.,0.,1.));
#413=DIRECTION('center_axis',(0.,0.,-1.));
#414=DIRECTION('ref_axis',(-6.93889390390706E-015,1.,0.));
#415=DIRECTION('center_axis',(-0.0997179615110275,0.995015742665454,0.));
#416=DIRECTION('ref_axis',(0.,0.,1.));
#417=DIRECTION($,(0.995015742665454,0.0997179615110275,0.));
#418=DIRECTION($,(0.,0.,1.));
#419=DIRECTION($,(0.995015742665454,0.0997179615110275,0.));
#420=DIRECTION('center_axis',(0.,0.,1.));
#421=DIRECTION('ref_axis',(2.49800180540669E-014,1.,0.));
#422=DIRECTION('center_axis',(0.,0.,1.));
#423=DIRECTION('ref_axis',(2.49800180540669E-014,1.,0.));
#424=DIRECTION('center_axis',(0.,0.,1.));
#425=DIRECTION('ref_axis',(2.49800180540669E-014,1.,0.));
#426=DIRECTION('center_axis',(0.,0.,1.));
#427=DIRECTION('ref_axis',(1.,0.,0.));
#428=DIRECTION('center_axis',(0.,0.,1.));
#429=DIRECTION('ref_axis',(1.,0.,0.));
#430=CARTESIAN_POINT('',(0.,0.,0.));
#431=CARTESIAN_POINT('Origin',(0.,-3.60000000000005,0.));
#432=CARTESIAN_POINT('',(0.,-3.60000000000005,100.));
#433=CARTESIAN_POINT('',(0.,-0.30000000000004,100.));
#434=CARTESIAN_POINT($,(0.,-3.22289124819293,100.));
#435=CARTESIAN_POINT('',(0.,-0.30000000000004,0.));
#436=CARTESIAN_POINT($,(0.,-0.30000000000004,0.));
#437=CARTESIAN_POINT('',(0.,-3.60000000000005,0.));
#438=CARTESIAN_POINT($,(0.,-3.22289124819293,0.));
#439=CARTESIAN_POINT($,(0.,-3.60000000000005,0.));
#440=CARTESIAN_POINT('Origin',(-0.29999999999999,-0.300000000000018,0.));
#441=CARTESIAN_POINT('',(-0.299999999999997,-2.84008927486923E-014,100.));
#442=CARTESIAN_POINT('Origin',(-0.29999999999999,-0.300000000000018,100.));
#443=CARTESIAN_POINT('',(-0.299999999999997,-2.84008927486923E-014,0.));
#444=CARTESIAN_POINT($,(-0.299999999999997,-2.84008927486923E-014,0.));
#445=CARTESIAN_POINT('Origin',(-0.29999999999999,-0.300000000000018,0.));
#446=CARTESIAN_POINT('Origin',(-0.299999999999997,-2.84008927486923E-014,
0.));
#447=CARTESIAN_POINT('',(-0.899999999999991,-0.050000000000125,100.));
#448=CARTESIAN_POINT($,(0.625361754497187,0.0771134795415537,100.));
#449=CARTESIAN_POINT('',(-0.899999999999991,-0.050000000000125,0.));
#450=CARTESIAN_POINT($,(-0.899999999999991,-0.050000000000125,0.));
#451=CARTESIAN_POINT($,(0.625361754497187,0.0771134795415537,0.));
#452=CARTESIAN_POINT('Origin',(-0.900000000000002,0.249999999999875,0.));
#453=CARTESIAN_POINT('',(-1.2,0.249999999999886,100.));
#454=CARTESIAN_POINT('Origin',(-0.900000000000002,0.249999999999875,100.));
#455=CARTESIAN_POINT('',(-1.2,0.249999999999886,0.));
#456=CARTESIAN_POINT($,(-1.2,0.249999999999886,0.));
#457=CARTESIAN_POINT('Origin',(-0.900000000000002,0.249999999999875,0.));
#458=CARTESIAN_POINT('Origin',(-1.2,0.249999999999886,0.));
#459=CARTESIAN_POINT('',(-1.2,1.26778141114074,100.));
#460=CARTESIAN_POINT($,(-1.2,-1.29789124819296,100.));
#461=CARTESIAN_POINT('',(-1.2,1.26778141114074,0.));
#462=CARTESIAN_POINT($,(-1.2,1.26778141114074,0.));
#463=CARTESIAN_POINT($,(-1.2,-1.29789124819296,0.));
#464=CARTESIAN_POINT('Origin',(-0.744956827623203,1.26778141114074,0.));
#465=CARTESIAN_POINT('',(-1.06624204430532,1.59002370859448,100.));
#466=CARTESIAN_POINT('Origin',(-0.744956827623203,1.26778141114074,100.));
#467=CARTESIAN_POINT('',(-1.06624204430532,1.59002370859448,0.));
#468=CARTESIAN_POINT($,(-1.06624204430532,1.59002370859448,0.));
#469=CARTESIAN_POINT('Origin',(-0.744956827623203,1.26778141114074,0.));
#470=CARTESIAN_POINT('Origin',(7.02059673235601,-8.34960089776248,0.));
#471=CARTESIAN_POINT('',(4.18377698586577,4.14622050144666,100.));
#472=CARTESIAN_POINT('Origin',(7.02059673235601,-8.34960089776248,100.));
#473=CARTESIAN_POINT('',(4.18377698586577,4.14622050144666,0.));
#474=CARTESIAN_POINT($,(4.18377698586577,4.14622050144666,0.));
#475=CARTESIAN_POINT('Origin',(7.02059673235601,-8.34960089776248,0.));
#476=CARTESIAN_POINT('Origin',(4.29573578793576,3.65305656444752,0.));
#477=CARTESIAN_POINT('',(4.70272601182211,3.35288261524743,100.));
#478=CARTESIAN_POINT('Origin',(4.29573578793576,3.65305656444752,100.));
#479=CARTESIAN_POINT('',(4.70272601182211,3.35288261524743,0.));
#480=CARTESIAN_POINT($,(4.70272601182211,3.35288261524743,0.));
#481=CARTESIAN_POINT('Origin',(4.29573578793576,3.65305656444752,0.));
#482=CARTESIAN_POINT('Origin',(13.6119647564946,-3.21808941650732,0.));
#483=CARTESIAN_POINT('',(4.22433300124322,-9.08533565980343,100.));
#484=CARTESIAN_POINT('Origin',(13.6119647564946,-3.21808941650732,100.));
#485=CARTESIAN_POINT('',(4.22433300124322,-9.08533565980343,0.));
#486=CARTESIAN_POINT($,(4.22433300124322,-9.08533565980343,0.));
#487=CARTESIAN_POINT('Origin',(13.6119647564946,-3.21808941650732,0.));
#488=CARTESIAN_POINT('Origin',(3.80033337010388,-9.35033436318457,0.));
#489=CARTESIAN_POINT('',(3.53973972326781,-9.77705552650866,100.));
#490=CARTESIAN_POINT('Origin',(3.80033337010388,-9.35033436318457,100.));
#491=CARTESIAN_POINT('',(3.53973972326781,-9.77705552650866,0.));
#492=CARTESIAN_POINT($,(3.53973972326781,-9.77705552650866,0.));
#493=CARTESIAN_POINT('Origin',(3.80033337010388,-9.35033436318457,0.));
#494=CARTESIAN_POINT('Origin',(35.5438086664536,22.2619435941154,0.));
#495=CARTESIAN_POINT('',(-1.04127903026937,-4.42680406842261,100.));
#496=CARTESIAN_POINT('Origin',(35.5438086664536,22.2619435941154,100.));
#497=CARTESIAN_POINT('',(-1.04127903026937,-4.42680406842261,0.));
#498=CARTESIAN_POINT($,(-1.04127903026937,-4.42680406842261,0.));
#499=CARTESIAN_POINT('Origin',(35.5438086664536,22.2619435941154,0.));
#500=CARTESIAN_POINT('Origin',(-0.798915003670442,-4.25000000000008,0.));
#501=CARTESIAN_POINT('',(-0.798915003670445,-3.95000000000007,100.));
#502=CARTESIAN_POINT('Origin',(-0.798915003670442,-4.25000000000008,100.));
#503=CARTESIAN_POINT('',(-0.798915003670445,-3.95000000000007,0.));
#504=CARTESIAN_POINT($,(-0.798915003670445,-3.95000000000007,0.));
#505=CARTESIAN_POINT('Origin',(-0.798915003670442,-4.25000000000008,0.));
#506=CARTESIAN_POINT('Origin',(-0.798915003670445,-3.95000000000007,0.));
#507=CARTESIAN_POINT('',(-0.299999999999997,-3.90000000000006,100.));
#508=CARTESIAN_POINT($,(0.542760416757165,-3.81554068222476,100.));
#509=CARTESIAN_POINT('',(-0.299999999999997,-3.90000000000006,0.));
#510=CARTESIAN_POINT($,(-0.299999999999997,-3.90000000000006,0.));
#511=CARTESIAN_POINT($,(0.542760416757165,-3.81554068222476,0.));
#512=CARTESIAN_POINT('Origin',(-0.29999999999999,-3.60000000000007,0.));
#513=CARTESIAN_POINT('Origin',(-0.29999999999999,-3.60000000000007,100.));
#514=CARTESIAN_POINT('Origin',(-0.29999999999999,-3.60000000000007,0.));
#515=CARTESIAN_POINT('Origin',(1.8007242969506,-2.8457824963858,100.));
#516=CARTESIAN_POINT('Origin',(1.8007242969506,-2.8457824963858,0.));
#517=UNCERTAINTY_MEASURE_WITH_UNIT(LENGTH_MEASURE(0.01),#519,
'DISTANCE_ACCURACY_VALUE',
'Maximum model space distance between geometric entities at asserted c
onnectivities');
#518=(
GEOMETRIC_REPRESENTATION_CONTEXT(3)
GLOBAL_UNCERTAINTY_ASSIGNED_CONTEXT((#517))
GLOBAL_UNIT_ASSIGNED_CONTEXT((#519,#522,#520))
REPRESENTATION_CONTEXT('','3D')
);
#519=(
LENGTH_UNIT()
NAMED_UNIT(*)
SI_UNIT(.MILLI.,.METRE.)
);
#520=(
NAMED_UNIT(*)
SI_UNIT($,.STERADIAN.)
SOLID_ANGLE_UNIT()
);
#521=DIMENSIONAL_EXPONENTS(0.,0.,0.,0.,0.,0.,0.);
#522=(
CONVERSION_BASED_UNIT('degree',#524)
NAMED_UNIT(#521)
PLANE_ANGLE_UNIT()
);
#523=(
NAMED_UNIT(*)
PLANE_ANGLE_UNIT()
SI_UNIT($,.RADIAN.)
);
#524=PLANE_ANGLE_MEASURE_WITH_UNIT(PLANE_ANGLE_MEASURE(0.01745329252),#523);
#525=SHAPE_DEFINITION_REPRESENTATION(#526,#527);
#526=PRODUCT_DEFINITION_SHAPE('',$,#529);
#527=SHAPE_REPRESENTATION('',(#297),#518);
#528=DESIGN_CONTEXT('3D Mechanical Parts',#532,'design');
#529=PRODUCT_DEFINITION('-699999-10','-699999-10',#530,#528);
#530=PRODUCT_DEFINITION_FORMATION('',$,#534);
#531=APPLICATION_PROTOCOL_DEFINITION('international standard',
'ap203_configuration_controlled_3d_design_of_mechanical_parts_and_asse
mblies_mim_lf',2004,#532);
#532=APPLICATION_CONTEXT(
'Configuration Controlled 3D Design of Mechanical Parts and Assemblies');
#533=MECHANICAL_CONTEXT('3D Mechanical Parts',#532,'mechanical');
#534=PRODUCT('-699999-10','-699999-10',$,(#533));
#535=PRESENTATION_STYLE_ASSIGNMENT((#536));
#536=SURFACE_STYLE_USAGE(.BOTH.,#537);
#537=SURFACE_SIDE_STYLE($,(#538));
#538=SURFACE_STYLE_FILL_AREA(#539);
#539=FILL_AREA_STYLE($,(#540));
#540=FILL_AREA_STYLE_COLOUR($,#541);
#541=COLOUR_RGB('',0.258823529411765,0.258823529411765,0.258823529411765);
ENDSEC;
END-ISO-10303-21;
