ISO-10303-21;
HEADER;
/* Generated by software containing ST-Developer
 * from STEP Tools, Inc. (www.steptools.com) 
 */

FILE_DESCRIPTION(
/* description */ ('Z\X2\01420105\X0\cze pozycyjne'),
/* implementation_level */ '2;1');

FILE_NAME(
/* name */ 
'W:\\_BIG DATA\\STP IGS\\Akcesoria\\Elementy po\X2\01420105\X0\czeniow
e\\STP\\Po\X2\01420105\X0\czenia k\X2\0105\X0\towe\\323047.stp',
/* time_stamp */ '2022-10-07T07:51:14+02:00',
/* author */ ('aluteckkpl_am'),
/* organization */ (''),
/* preprocessor_version */ 'ST-DEVELOPER v18.1',
/* originating_system */ 'Autodesk Inventor 2021',
/* authorisation */ '');

FILE_SCHEMA (('CONFIG_CONTROL_DESIGN'));
ENDSEC;

DATA;
#10=MECHANICAL_DESIGN_GEOMETRIC_PRESENTATION_REPRESENTATION('',(#13),#425);
#11=SHAPE_REPRESENTATION_RELATIONSHIP('SRR','None',#432,#12);
#12=ADVANCED_BREP_SHAPE_REPRESENTATION('',(#14),#424);
#13=STYLED_ITEM('',(#441),#14);
#14=MANIFOLD_SOLID_BREP('T\X2\011B\X0\leso1',#249);
#15=LINE('',#367,#41);
#16=LINE('',#370,#42);
#17=LINE('',#375,#43);
#18=LINE('',#377,#44);
#19=LINE('',#379,#45);
#20=LINE('',#380,#46);
#21=LINE('',#383,#47);
#22=LINE('',#385,#48);
#23=LINE('',#386,#49);
#24=LINE('',#389,#50);
#25=LINE('',#391,#51);
#26=LINE('',#392,#52);
#27=LINE('',#395,#53);
#28=LINE('',#397,#54);
#29=LINE('',#398,#55);
#30=LINE('',#401,#56);
#31=LINE('',#403,#57);
#32=LINE('',#405,#58);
#33=LINE('',#406,#59);
#34=LINE('',#409,#60);
#35=LINE('',#410,#61);
#36=LINE('',#413,#62);
#37=LINE('',#415,#63);
#38=LINE('',#416,#64);
#39=LINE('',#418,#65);
#40=LINE('',#419,#66);
#41=VECTOR('',#304,5.5);
#42=VECTOR('',#307,3.25);
#43=VECTOR('',#312,10.);
#44=VECTOR('',#313,10.);
#45=VECTOR('',#314,10.);
#46=VECTOR('',#315,10.);
#47=VECTOR('',#318,10.);
#48=VECTOR('',#319,10.);
#49=VECTOR('',#320,10.);
#50=VECTOR('',#323,10.);
#51=VECTOR('',#324,10.);
#52=VECTOR('',#325,10.);
#53=VECTOR('',#328,10.);
#54=VECTOR('',#329,10.);
#55=VECTOR('',#330,10.);
#56=VECTOR('',#333,10.);
#57=VECTOR('',#334,10.);
#58=VECTOR('',#335,10.);
#59=VECTOR('',#336,10.);
#60=VECTOR('',#339,10.);
#61=VECTOR('',#340,10.);
#62=VECTOR('',#343,10.);
#63=VECTOR('',#344,10.);
#64=VECTOR('',#345,10.);
#65=VECTOR('',#348,10.);
#66=VECTOR('',#349,10.);
#67=CYLINDRICAL_SURFACE('',#273,5.5);
#68=CYLINDRICAL_SURFACE('',#276,3.25);
#69=FACE_BOUND('',#86,.T.);
#70=FACE_BOUND('',#98,.T.);
#71=FACE_BOUND('',#100,.T.);
#72=FACE_OUTER_BOUND('',#85,.T.);
#73=FACE_OUTER_BOUND('',#87,.T.);
#74=FACE_OUTER_BOUND('',#88,.T.);
#75=FACE_OUTER_BOUND('',#89,.T.);
#76=FACE_OUTER_BOUND('',#90,.T.);
#77=FACE_OUTER_BOUND('',#91,.T.);
#78=FACE_OUTER_BOUND('',#92,.T.);
#79=FACE_OUTER_BOUND('',#93,.T.);
#80=FACE_OUTER_BOUND('',#94,.T.);
#81=FACE_OUTER_BOUND('',#95,.T.);
#82=FACE_OUTER_BOUND('',#96,.T.);
#83=FACE_OUTER_BOUND('',#97,.T.);
#84=FACE_OUTER_BOUND('',#99,.T.);
#85=EDGE_LOOP('',(#161,#162));
#86=EDGE_LOOP('',(#163));
#87=EDGE_LOOP('',(#164,#165,#166,#167,#168,#169));
#88=EDGE_LOOP('',(#170,#171,#172,#173));
#89=EDGE_LOOP('',(#174,#175,#176,#177));
#90=EDGE_LOOP('',(#178,#179,#180,#181));
#91=EDGE_LOOP('',(#182,#183,#184,#185));
#92=EDGE_LOOP('',(#186,#187,#188,#189));
#93=EDGE_LOOP('',(#190,#191,#192,#193,#194,#195,#196,#197));
#94=EDGE_LOOP('',(#198,#199,#200,#201));
#95=EDGE_LOOP('',(#202,#203,#204,#205));
#96=EDGE_LOOP('',(#206,#207,#208,#209,#210,#211,#212,#213));
#97=EDGE_LOOP('',(#214,#215,#216,#217));
#98=EDGE_LOOP('',(#218));
#99=EDGE_LOOP('',(#219,#220,#221,#222));
#100=EDGE_LOOP('',(#223,#224));
#101=CIRCLE('',#270,5.5);
#102=CIRCLE('',#271,5.5);
#103=CIRCLE('',#272,3.25);
#104=CIRCLE('',#274,5.5);
#105=CIRCLE('',#275,5.5);
#106=CIRCLE('',#277,3.25);
#107=VERTEX_POINT('',#356);
#108=VERTEX_POINT('',#357);
#109=VERTEX_POINT('',#360);
#110=VERTEX_POINT('',#363);
#111=VERTEX_POINT('',#364);
#112=VERTEX_POINT('',#369);
#113=VERTEX_POINT('',#373);
#114=VERTEX_POINT('',#374);
#115=VERTEX_POINT('',#376);
#116=VERTEX_POINT('',#378);
#117=VERTEX_POINT('',#382);
#118=VERTEX_POINT('',#384);
#119=VERTEX_POINT('',#388);
#120=VERTEX_POINT('',#390);
#121=VERTEX_POINT('',#394);
#122=VERTEX_POINT('',#396);
#123=VERTEX_POINT('',#400);
#124=VERTEX_POINT('',#402);
#125=VERTEX_POINT('',#404);
#126=VERTEX_POINT('',#408);
#127=VERTEX_POINT('',#412);
#128=VERTEX_POINT('',#414);
#129=EDGE_CURVE('',#107,#108,#101,.T.);
#130=EDGE_CURVE('',#108,#107,#102,.T.);
#131=EDGE_CURVE('',#109,#109,#103,.T.);
#132=EDGE_CURVE('',#110,#111,#104,.T.);
#133=EDGE_CURVE('',#111,#110,#105,.T.);
#134=EDGE_CURVE('',#111,#108,#15,.T.);
#135=EDGE_CURVE('',#109,#112,#16,.T.);
#136=EDGE_CURVE('',#112,#112,#106,.T.);
#137=EDGE_CURVE('',#113,#114,#17,.T.);
#138=EDGE_CURVE('',#115,#113,#18,.T.);
#139=EDGE_CURVE('',#116,#115,#19,.T.);
#140=EDGE_CURVE('',#116,#114,#20,.T.);
#141=EDGE_CURVE('',#114,#117,#21,.T.);
#142=EDGE_CURVE('',#118,#116,#22,.T.);
#143=EDGE_CURVE('',#118,#117,#23,.T.);
#144=EDGE_CURVE('',#117,#119,#24,.T.);
#145=EDGE_CURVE('',#120,#118,#25,.T.);
#146=EDGE_CURVE('',#120,#119,#26,.T.);
#147=EDGE_CURVE('',#119,#121,#27,.T.);
#148=EDGE_CURVE('',#122,#120,#28,.T.);
#149=EDGE_CURVE('',#121,#122,#29,.T.);
#150=EDGE_CURVE('',#115,#123,#30,.T.);
#151=EDGE_CURVE('',#123,#124,#31,.T.);
#152=EDGE_CURVE('',#125,#124,#32,.T.);
#153=EDGE_CURVE('',#125,#122,#33,.T.);
#154=EDGE_CURVE('',#113,#126,#34,.T.);
#155=EDGE_CURVE('',#126,#123,#35,.T.);
#156=EDGE_CURVE('',#124,#127,#36,.T.);
#157=EDGE_CURVE('',#128,#127,#37,.T.);
#158=EDGE_CURVE('',#128,#125,#38,.T.);
#159=EDGE_CURVE('',#121,#128,#39,.T.);
#160=EDGE_CURVE('',#127,#126,#40,.T.);
#161=ORIENTED_EDGE('',*,*,#129,.T.);
#162=ORIENTED_EDGE('',*,*,#130,.T.);
#163=ORIENTED_EDGE('',*,*,#131,.F.);
#164=ORIENTED_EDGE('',*,*,#132,.F.);
#165=ORIENTED_EDGE('',*,*,#133,.F.);
#166=ORIENTED_EDGE('',*,*,#134,.T.);
#167=ORIENTED_EDGE('',*,*,#129,.F.);
#168=ORIENTED_EDGE('',*,*,#130,.F.);
#169=ORIENTED_EDGE('',*,*,#134,.F.);
#170=ORIENTED_EDGE('',*,*,#131,.T.);
#171=ORIENTED_EDGE('',*,*,#135,.T.);
#172=ORIENTED_EDGE('',*,*,#136,.F.);
#173=ORIENTED_EDGE('',*,*,#135,.F.);
#174=ORIENTED_EDGE('',*,*,#137,.F.);
#175=ORIENTED_EDGE('',*,*,#138,.F.);
#176=ORIENTED_EDGE('',*,*,#139,.F.);
#177=ORIENTED_EDGE('',*,*,#140,.T.);
#178=ORIENTED_EDGE('',*,*,#141,.F.);
#179=ORIENTED_EDGE('',*,*,#140,.F.);
#180=ORIENTED_EDGE('',*,*,#142,.F.);
#181=ORIENTED_EDGE('',*,*,#143,.T.);
#182=ORIENTED_EDGE('',*,*,#144,.F.);
#183=ORIENTED_EDGE('',*,*,#143,.F.);
#184=ORIENTED_EDGE('',*,*,#145,.F.);
#185=ORIENTED_EDGE('',*,*,#146,.T.);
#186=ORIENTED_EDGE('',*,*,#147,.F.);
#187=ORIENTED_EDGE('',*,*,#146,.F.);
#188=ORIENTED_EDGE('',*,*,#148,.F.);
#189=ORIENTED_EDGE('',*,*,#149,.F.);
#190=ORIENTED_EDGE('',*,*,#148,.T.);
#191=ORIENTED_EDGE('',*,*,#145,.T.);
#192=ORIENTED_EDGE('',*,*,#142,.T.);
#193=ORIENTED_EDGE('',*,*,#139,.T.);
#194=ORIENTED_EDGE('',*,*,#150,.T.);
#195=ORIENTED_EDGE('',*,*,#151,.T.);
#196=ORIENTED_EDGE('',*,*,#152,.F.);
#197=ORIENTED_EDGE('',*,*,#153,.T.);
#198=ORIENTED_EDGE('',*,*,#138,.T.);
#199=ORIENTED_EDGE('',*,*,#154,.T.);
#200=ORIENTED_EDGE('',*,*,#155,.T.);
#201=ORIENTED_EDGE('',*,*,#150,.F.);
#202=ORIENTED_EDGE('',*,*,#156,.T.);
#203=ORIENTED_EDGE('',*,*,#157,.F.);
#204=ORIENTED_EDGE('',*,*,#158,.T.);
#205=ORIENTED_EDGE('',*,*,#152,.T.);
#206=ORIENTED_EDGE('',*,*,#147,.T.);
#207=ORIENTED_EDGE('',*,*,#159,.T.);
#208=ORIENTED_EDGE('',*,*,#157,.T.);
#209=ORIENTED_EDGE('',*,*,#160,.T.);
#210=ORIENTED_EDGE('',*,*,#154,.F.);
#211=ORIENTED_EDGE('',*,*,#137,.T.);
#212=ORIENTED_EDGE('',*,*,#141,.T.);
#213=ORIENTED_EDGE('',*,*,#144,.T.);
#214=ORIENTED_EDGE('',*,*,#149,.T.);
#215=ORIENTED_EDGE('',*,*,#153,.F.);
#216=ORIENTED_EDGE('',*,*,#158,.F.);
#217=ORIENTED_EDGE('',*,*,#159,.F.);
#218=ORIENTED_EDGE('',*,*,#136,.T.);
#219=ORIENTED_EDGE('',*,*,#156,.F.);
#220=ORIENTED_EDGE('',*,*,#151,.F.);
#221=ORIENTED_EDGE('',*,*,#155,.F.);
#222=ORIENTED_EDGE('',*,*,#160,.F.);
#223=ORIENTED_EDGE('',*,*,#132,.T.);
#224=ORIENTED_EDGE('',*,*,#133,.T.);
#225=PLANE('',#269);
#226=PLANE('',#278);
#227=PLANE('',#279);
#228=PLANE('',#280);
#229=PLANE('',#281);
#230=PLANE('',#282);
#231=PLANE('',#283);
#232=PLANE('',#284);
#233=PLANE('',#285);
#234=PLANE('',#286);
#235=PLANE('',#287);
#236=ADVANCED_FACE('',(#72,#69),#225,.T.);
#237=ADVANCED_FACE('',(#73),#67,.F.);
#238=ADVANCED_FACE('',(#74),#68,.F.);
#239=ADVANCED_FACE('',(#75),#226,.F.);
#240=ADVANCED_FACE('',(#76),#227,.F.);
#241=ADVANCED_FACE('',(#77),#228,.F.);
#242=ADVANCED_FACE('',(#78),#229,.F.);
#243=ADVANCED_FACE('',(#79),#230,.T.);
#244=ADVANCED_FACE('',(#80),#231,.T.);
#245=ADVANCED_FACE('',(#81),#232,.T.);
#246=ADVANCED_FACE('',(#82),#233,.T.);
#247=ADVANCED_FACE('',(#83,#70),#234,.F.);
#248=ADVANCED_FACE('',(#84,#71),#235,.T.);
#249=CLOSED_SHELL('',(#236,#237,#238,#239,#240,#241,#242,#243,#244,#245,
#246,#247,#248));
#250=DERIVED_UNIT_ELEMENT(#252,1.);
#251=DERIVED_UNIT_ELEMENT(#427,3.);
#252=(
MASS_UNIT()
NAMED_UNIT(*)
SI_UNIT($,.GRAM.)
);
#253=DERIVED_UNIT((#250,#251));
#254=MEASURE_REPRESENTATION_ITEM('density measure',
POSITIVE_RATIO_MEASURE(2.71),#253);
#255=PROPERTY_DEFINITION_REPRESENTATION(#260,#257);
#256=PROPERTY_DEFINITION_REPRESENTATION(#261,#258);
#257=REPRESENTATION('material name',(#259),#424);
#258=REPRESENTATION('density',(#254),#424);
#259=DESCRIPTIVE_REPRESENTATION_ITEM('Hlin\X\EDk - 6061',
'Hlin\X\EDk - 6061');
#260=PROPERTY_DEFINITION('material property','material name',#434);
#261=PROPERTY_DEFINITION('material property','density of part',#434);
#262=DATE_TIME_ROLE('creation_date');
#263=CC_DESIGN_DATE_AND_TIME_ASSIGNMENT(#264,#262,(#434));
#264=DATE_AND_TIME(#265,#266);
#265=CALENDAR_DATE(2015,27,11);
#266=LOCAL_TIME(0,0,0.,#267);
#267=COORDINATED_UNIVERSAL_TIME_OFFSET(0,0,.BEHIND.);
#268=AXIS2_PLACEMENT_3D('placement',#354,#288,#289);
#269=AXIS2_PLACEMENT_3D('',#355,#290,#291);
#270=AXIS2_PLACEMENT_3D('',#358,#292,#293);
#271=AXIS2_PLACEMENT_3D('',#359,#294,#295);
#272=AXIS2_PLACEMENT_3D('',#361,#296,#297);
#273=AXIS2_PLACEMENT_3D('',#362,#298,#299);
#274=AXIS2_PLACEMENT_3D('',#365,#300,#301);
#275=AXIS2_PLACEMENT_3D('',#366,#302,#303);
#276=AXIS2_PLACEMENT_3D('',#368,#305,#306);
#277=AXIS2_PLACEMENT_3D('',#371,#308,#309);
#278=AXIS2_PLACEMENT_3D('',#372,#310,#311);
#279=AXIS2_PLACEMENT_3D('',#381,#316,#317);
#280=AXIS2_PLACEMENT_3D('',#387,#321,#322);
#281=AXIS2_PLACEMENT_3D('',#393,#326,#327);
#282=AXIS2_PLACEMENT_3D('',#399,#331,#332);
#283=AXIS2_PLACEMENT_3D('',#407,#337,#338);
#284=AXIS2_PLACEMENT_3D('',#411,#341,#342);
#285=AXIS2_PLACEMENT_3D('',#417,#346,#347);
#286=AXIS2_PLACEMENT_3D('',#420,#350,#351);
#287=AXIS2_PLACEMENT_3D('',#421,#352,#353);
#288=DIRECTION('axis',(0.,0.,1.));
#289=DIRECTION('refdir',(1.,0.,0.));
#290=DIRECTION('center_axis',(0.,0.,1.));
#291=DIRECTION('ref_axis',(1.,0.,0.));
#292=DIRECTION('center_axis',(0.,0.,1.));
#293=DIRECTION('ref_axis',(1.,0.,0.));
#294=DIRECTION('center_axis',(0.,0.,1.));
#295=DIRECTION('ref_axis',(1.,0.,0.));
#296=DIRECTION('center_axis',(0.,0.,1.));
#297=DIRECTION('ref_axis',(1.,0.,0.));
#298=DIRECTION('center_axis',(0.,0.,1.));
#299=DIRECTION('ref_axis',(1.,0.,0.));
#300=DIRECTION('center_axis',(0.,0.,-1.));
#301=DIRECTION('ref_axis',(1.,0.,0.));
#302=DIRECTION('center_axis',(0.,0.,-1.));
#303=DIRECTION('ref_axis',(1.,0.,0.));
#304=DIRECTION('',(0.,0.,-1.));
#305=DIRECTION('center_axis',(0.,0.,1.));
#306=DIRECTION('ref_axis',(1.,0.,0.));
#307=DIRECTION('',(0.,0.,-1.));
#308=DIRECTION('center_axis',(0.,0.,1.));
#309=DIRECTION('ref_axis',(1.,0.,0.));
#310=DIRECTION('center_axis',(0.,0.,1.));
#311=DIRECTION('ref_axis',(1.,0.,0.));
#312=DIRECTION('',(-1.,-8.88178419700125E-16,0.));
#313=DIRECTION('',(-5.32907051820075E-16,1.,0.));
#314=DIRECTION('',(1.,0.,0.));
#315=DIRECTION('',(0.,1.,0.));
#316=DIRECTION('center_axis',(1.,0.,0.));
#317=DIRECTION('ref_axis',(0.,0.,-1.));
#318=DIRECTION('',(0.,0.,1.));
#319=DIRECTION('',(0.,0.,-1.));
#320=DIRECTION('',(0.,1.,0.));
#321=DIRECTION('center_axis',(0.,0.,1.));
#322=DIRECTION('ref_axis',(1.,0.,0.));
#323=DIRECTION('',(-1.,-8.88178419700125E-16,0.));
#324=DIRECTION('',(1.,0.,0.));
#325=DIRECTION('',(0.,1.,0.));
#326=DIRECTION('center_axis',(-1.,0.,0.));
#327=DIRECTION('ref_axis',(0.,0.,1.));
#328=DIRECTION('',(0.,0.,-1.));
#329=DIRECTION('',(0.,0.,1.));
#330=DIRECTION('',(0.,-1.,0.));
#331=DIRECTION('center_axis',(0.,-1.,0.));
#332=DIRECTION('ref_axis',(0.,0.,-1.));
#333=DIRECTION('',(0.,0.,1.));
#334=DIRECTION('',(-1.,0.,0.));
#335=DIRECTION('',(0.,0.,1.));
#336=DIRECTION('',(1.,0.,0.));
#337=DIRECTION('center_axis',(1.,5.32907051820075E-16,0.));
#338=DIRECTION('ref_axis',(0.,0.,-1.));
#339=DIRECTION('',(0.,0.,1.));
#340=DIRECTION('',(5.32907051820075E-16,-1.,0.));
#341=DIRECTION('center_axis',(-1.,-4.89858719658941E-16,0.));
#342=DIRECTION('ref_axis',(0.,0.,1.));
#343=DIRECTION('',(-4.89858719658941E-16,1.,0.));
#344=DIRECTION('',(0.,0.,1.));
#345=DIRECTION('',(4.89858719658941E-16,-1.,0.));
#346=DIRECTION('center_axis',(-8.88178419700125E-16,1.,0.));
#347=DIRECTION('ref_axis',(0.,0.,1.));
#348=DIRECTION('',(-1.,-8.88178419700125E-16,0.));
#349=DIRECTION('',(1.,8.88178419700125E-16,0.));
#350=DIRECTION('center_axis',(0.,0.,1.));
#351=DIRECTION('ref_axis',(1.,0.,0.));
#352=DIRECTION('center_axis',(0.,0.,1.));
#353=DIRECTION('ref_axis',(1.,0.,0.));
#354=CARTESIAN_POINT('',(0.,0.,0.));
#355=CARTESIAN_POINT('Origin',(7.5,3.88578058618805E-15,8.5));
#356=CARTESIAN_POINT('',(13.,3.88578058618805E-15,8.5));
#357=CARTESIAN_POINT('',(2.,3.212224846657E-15,8.5));
#358=CARTESIAN_POINT('Origin',(7.5,3.88578058618805E-15,8.5));
#359=CARTESIAN_POINT('Origin',(7.5,3.88578058618805E-15,8.5));
#360=CARTESIAN_POINT('',(4.25,3.48777037646516E-15,8.5));
#361=CARTESIAN_POINT('Origin',(7.5,3.88578058618805E-15,8.5));
#362=CARTESIAN_POINT('Origin',(7.5,3.88578058618805E-15,11.75));
#363=CARTESIAN_POINT('',(13.,3.88578058618805E-15,15.));
#364=CARTESIAN_POINT('',(2.,3.212224846657E-15,15.));
#365=CARTESIAN_POINT('Origin',(7.5,3.88578058618805E-15,15.));
#366=CARTESIAN_POINT('Origin',(7.5,3.88578058618805E-15,15.));
#367=CARTESIAN_POINT('',(2.,3.212224846657E-15,11.75));
#368=CARTESIAN_POINT('Origin',(7.5,3.88578058618805E-15,-20.3553390593274));
#369=CARTESIAN_POINT('',(4.25,3.48777037646516E-15,0.));
#370=CARTESIAN_POINT('',(4.25,3.48777037646516E-15,-20.3553390593274));
#371=CARTESIAN_POINT('Origin',(7.5,3.88578058618805E-15,0.));
#372=CARTESIAN_POINT('Origin',(20.,-12.5,10.5));
#373=CARTESIAN_POINT('',(20.,12.5,10.5));
#374=CARTESIAN_POINT('',(18.,12.5,10.5));
#375=CARTESIAN_POINT('',(9.99999999999999,12.5,10.5));
#376=CARTESIAN_POINT('',(20.,-12.5,10.5));
#377=CARTESIAN_POINT('',(20.,8.88178419700125E-15,10.5));
#378=CARTESIAN_POINT('',(18.,-12.5,10.5));
#379=CARTESIAN_POINT('',(20.,-12.5,10.5));
#380=CARTESIAN_POINT('',(18.,-12.5,10.5));
#381=CARTESIAN_POINT('Origin',(18.,-12.5,10.5));
#382=CARTESIAN_POINT('',(18.,12.5,11.5));
#383=CARTESIAN_POINT('',(18.,12.5,5.25));
#384=CARTESIAN_POINT('',(18.,-12.5,11.5));
#385=CARTESIAN_POINT('',(18.,-12.5,5.25));
#386=CARTESIAN_POINT('',(18.,-12.5,11.5));
#387=CARTESIAN_POINT('Origin',(18.,-12.5,11.5));
#388=CARTESIAN_POINT('',(15.,12.5,11.5));
#389=CARTESIAN_POINT('',(8.99999999999999,12.5,11.5));
#390=CARTESIAN_POINT('',(15.,-12.5,11.5));
#391=CARTESIAN_POINT('',(19.,-12.5,11.5));
#392=CARTESIAN_POINT('',(15.,-12.5,11.5));
#393=CARTESIAN_POINT('Origin',(15.,-12.5,11.5));
#394=CARTESIAN_POINT('',(15.,12.5,0.));
#395=CARTESIAN_POINT('',(15.,12.5,5.75));
#396=CARTESIAN_POINT('',(15.,-12.5,0.));
#397=CARTESIAN_POINT('',(15.,-12.5,5.75));
#398=CARTESIAN_POINT('',(15.,-6.25,0.));
#399=CARTESIAN_POINT('Origin',(20.,-12.5,0.));
#400=CARTESIAN_POINT('',(20.,-12.5,15.));
#401=CARTESIAN_POINT('',(20.,-12.5,0.));
#402=CARTESIAN_POINT('',(3.82702124733548E-15,-12.5,15.));
#403=CARTESIAN_POINT('',(3.82702124733548E-15,-12.5,15.));
#404=CARTESIAN_POINT('',(3.82702124733548E-15,-12.5,0.));
#405=CARTESIAN_POINT('',(3.82702124733548E-15,-12.5,0.));
#406=CARTESIAN_POINT('',(3.82702124733548E-15,-12.5,0.));
#407=CARTESIAN_POINT('Origin',(20.,12.5,0.));
#408=CARTESIAN_POINT('',(20.,12.5,15.));
#409=CARTESIAN_POINT('',(20.,12.5,0.));
#410=CARTESIAN_POINT('',(20.,-12.5,15.));
#411=CARTESIAN_POINT('Origin',(3.82702124733548E-15,-12.5,0.));
#412=CARTESIAN_POINT('',(-8.41944674413805E-15,12.5,15.));
#413=CARTESIAN_POINT('',(-8.41944674413805E-15,12.5,15.));
#414=CARTESIAN_POINT('',(-8.41944674413805E-15,12.5,0.));
#415=CARTESIAN_POINT('',(-8.41944674413805E-15,12.5,0.));
#416=CARTESIAN_POINT('',(-8.41944674413805E-15,12.5,0.));
#417=CARTESIAN_POINT('Origin',(-8.41944674413805E-15,12.5,0.));
#418=CARTESIAN_POINT('',(20.,12.5,0.));
#419=CARTESIAN_POINT('',(20.,12.5,15.));
#420=CARTESIAN_POINT('Origin',(10.,3.8016727812922E-15,0.));
#421=CARTESIAN_POINT('Origin',(10.,3.88578058618805E-15,15.));
#422=UNCERTAINTY_MEASURE_WITH_UNIT(LENGTH_MEASURE(0.01),#426,
'DISTANCE_ACCURACY_VALUE',
'Maximum model space distance between geometric entities at asserted c
onnectivities');
#423=UNCERTAINTY_MEASURE_WITH_UNIT(LENGTH_MEASURE(0.01),#426,
'DISTANCE_ACCURACY_VALUE',
'Maximum model space distance between geometric entities at asserted c
onnectivities');
#424=(
GEOMETRIC_REPRESENTATION_CONTEXT(3)
GLOBAL_UNCERTAINTY_ASSIGNED_CONTEXT((#422))
GLOBAL_UNIT_ASSIGNED_CONTEXT((#426,#428,#429))
REPRESENTATION_CONTEXT('','3D')
);
#425=(
GEOMETRIC_REPRESENTATION_CONTEXT(3)
GLOBAL_UNCERTAINTY_ASSIGNED_CONTEXT((#423))
GLOBAL_UNIT_ASSIGNED_CONTEXT((#426,#428,#429))
REPRESENTATION_CONTEXT('','3D')
);
#426=(
LENGTH_UNIT()
NAMED_UNIT(*)
SI_UNIT(.MILLI.,.METRE.)
);
#427=(
LENGTH_UNIT()
NAMED_UNIT(*)
SI_UNIT(.CENTI.,.METRE.)
);
#428=(
NAMED_UNIT(*)
PLANE_ANGLE_UNIT()
SI_UNIT($,.RADIAN.)
);
#429=(
NAMED_UNIT(*)
SI_UNIT($,.STERADIAN.)
SOLID_ANGLE_UNIT()
);
#430=SHAPE_DEFINITION_REPRESENTATION(#431,#432);
#431=PRODUCT_DEFINITION_SHAPE('',$,#434);
#432=SHAPE_REPRESENTATION('',(#268),#424);
#433=DESIGN_CONTEXT('part definition',#438,'design');
#434=PRODUCT_DEFINITION('323047','323047',#435,#433);
#435=PRODUCT_DEFINITION_FORMATION('',$,#440);
#436=PRODUCT_RELATED_PRODUCT_CATEGORY('323047','323047',(#440));
#437=APPLICATION_PROTOCOL_DEFINITION('international standard',
'ap203_configuration_controlled_3d_design_of_mechanical_parts_and_asse
mblies_mim_lf',2004,#438);
#438=APPLICATION_CONTEXT(
'Configuration Controlled 3D Design of Mechanical Parts and Assemblies');
#439=MECHANICAL_CONTEXT('part definition',#438,'mechanical');
#440=PRODUCT('323047','323047','Z\X2\01420105\X0\cze pozycyjne',(#439));
#441=PRESENTATION_STYLE_ASSIGNMENT((#442));
#442=SURFACE_STYLE_USAGE(.BOTH.,#445);
#443=SURFACE_STYLE_RENDERING_WITH_PROPERTIES($,#449,(#444));
#444=SURFACE_STYLE_TRANSPARENT(0.);
#445=SURFACE_SIDE_STYLE('',(#446,#443));
#446=SURFACE_STYLE_FILL_AREA(#447);
#447=FILL_AREA_STYLE('',(#448));
#448=FILL_AREA_STYLE_COLOUR('',#449);
#449=COLOUR_RGB('',0.811764705882353,0.8,0.823529411764706);
ENDSEC;
END-ISO-10303-21;
