ISO-10303-21;
HEADER;
/* Generated by software containing ST-Developer
 * from STEP Tools, Inc. (www.steptools.com) 
 */

FILE_DESCRIPTION(
/* description */ ('K\X2\0105\X0\townik usztywniaj\X2\0105\X0\cy 28x28
 PA6'),
/* implementation_level */ '2;1');

FILE_NAME(
/* name */ 
'W:\\_BIG DATA\\STP IGS\\Akcesoria\\Elementy po\X2\01420105\X0\czeniow
e\\STP\\K\X2\0105\X0\towniki\\302828.stp',
/* time_stamp */ '2022-10-07T09:18:01+02:00',
/* author */ ('aluteckkpl_am'),
/* organization */ (''),
/* preprocessor_version */ 'ST-DEVELOPER v18.1',
/* originating_system */ 'Autodesk Inventor 2021',
/* authorisation */ '');

FILE_SCHEMA (('CONFIG_CONTROL_DESIGN'));
ENDSEC;

DATA;
#10=MECHANICAL_DESIGN_GEOMETRIC_PRESENTATION_REPRESENTATION('',(#13),#649);
#11=SHAPE_REPRESENTATION_RELATIONSHIP('SRR','None',#656,#12);
#12=ADVANCED_BREP_SHAPE_REPRESENTATION('',(#14),#648);
#13=STYLED_ITEM('',(#665),#14);
#14=MANIFOLD_SOLID_BREP('T\X2\011B\X0\leso1',#389);
#15=FACE_BOUND('',#66,.T.);
#16=FACE_BOUND('',#68,.T.);
#17=FACE_BOUND('',#74,.T.);
#18=FACE_BOUND('',#76,.T.);
#19=PLANE('',#412);
#20=PLANE('',#416);
#21=PLANE('',#420);
#22=PLANE('',#424);
#23=PLANE('',#425);
#24=PLANE('',#426);
#25=PLANE('',#427);
#26=PLANE('',#428);
#27=PLANE('',#429);
#28=PLANE('',#430);
#29=PLANE('',#431);
#30=PLANE('',#432);
#31=PLANE('',#433);
#32=PLANE('',#434);
#33=PLANE('',#435);
#34=PLANE('',#436);
#35=FACE_OUTER_BOUND('',#55,.T.);
#36=FACE_OUTER_BOUND('',#56,.T.);
#37=FACE_OUTER_BOUND('',#57,.T.);
#38=FACE_OUTER_BOUND('',#58,.T.);
#39=FACE_OUTER_BOUND('',#59,.T.);
#40=FACE_OUTER_BOUND('',#60,.T.);
#41=FACE_OUTER_BOUND('',#61,.T.);
#42=FACE_OUTER_BOUND('',#62,.T.);
#43=FACE_OUTER_BOUND('',#63,.T.);
#44=FACE_OUTER_BOUND('',#64,.T.);
#45=FACE_OUTER_BOUND('',#65,.T.);
#46=FACE_OUTER_BOUND('',#67,.T.);
#47=FACE_OUTER_BOUND('',#69,.T.);
#48=FACE_OUTER_BOUND('',#70,.T.);
#49=FACE_OUTER_BOUND('',#71,.T.);
#50=FACE_OUTER_BOUND('',#72,.T.);
#51=FACE_OUTER_BOUND('',#73,.T.);
#52=FACE_OUTER_BOUND('',#75,.T.);
#53=FACE_OUTER_BOUND('',#77,.T.);
#54=FACE_OUTER_BOUND('',#78,.T.);
#55=EDGE_LOOP('',(#261,#262,#263,#264));
#56=EDGE_LOOP('',(#265,#266,#267,#268));
#57=EDGE_LOOP('',(#269,#270,#271,#272));
#58=EDGE_LOOP('',(#273,#274,#275,#276));
#59=EDGE_LOOP('',(#277,#278,#279,#280));
#60=EDGE_LOOP('',(#281,#282,#283,#284));
#61=EDGE_LOOP('',(#285,#286,#287,#288));
#62=EDGE_LOOP('',(#289,#290,#291,#292));
#63=EDGE_LOOP('',(#293,#294,#295,#296));
#64=EDGE_LOOP('',(#297,#298,#299,#300));
#65=EDGE_LOOP('',(#301,#302,#303,#304));
#66=EDGE_LOOP('',(#305,#306,#307,#308));
#67=EDGE_LOOP('',(#309,#310,#311,#312));
#68=EDGE_LOOP('',(#313,#314,#315,#316));
#69=EDGE_LOOP('',(#317,#318,#319,#320));
#70=EDGE_LOOP('',(#321,#322,#323,#324));
#71=EDGE_LOOP('',(#325,#326,#327,#328,#329,#330,#331,#332));
#72=EDGE_LOOP('',(#333,#334,#335,#336,#337,#338));
#73=EDGE_LOOP('',(#339,#340,#341,#342));
#74=EDGE_LOOP('',(#343,#344,#345,#346));
#75=EDGE_LOOP('',(#347,#348,#349,#350));
#76=EDGE_LOOP('',(#351,#352,#353,#354));
#77=EDGE_LOOP('',(#355,#356,#357,#358,#359));
#78=EDGE_LOOP('',(#360,#361,#362,#363,#364));
#79=LINE('',#545,#123);
#80=LINE('',#548,#124);
#81=LINE('',#551,#125);
#82=LINE('',#553,#126);
#83=LINE('',#554,#127);
#84=LINE('',#560,#128);
#85=LINE('',#562,#129);
#86=LINE('',#563,#130);
#87=LINE('',#569,#131);
#88=LINE('',#572,#132);
#89=LINE('',#575,#133);
#90=LINE('',#577,#134);
#91=LINE('',#578,#135);
#92=LINE('',#584,#136);
#93=LINE('',#586,#137);
#94=LINE('',#587,#138);
#95=LINE('',#591,#139);
#96=LINE('',#593,#140);
#97=LINE('',#595,#141);
#98=LINE('',#596,#142);
#99=LINE('',#600,#143);
#100=LINE('',#602,#144);
#101=LINE('',#604,#145);
#102=LINE('',#605,#146);
#103=LINE('',#607,#147);
#104=LINE('',#608,#148);
#105=LINE('',#610,#149);
#106=LINE('',#613,#150);
#107=LINE('',#615,#151);
#108=LINE('',#616,#152);
#109=LINE('',#619,#153);
#110=LINE('',#621,#154);
#111=LINE('',#622,#155);
#112=LINE('',#625,#156);
#113=LINE('',#627,#157);
#114=LINE('',#628,#158);
#115=LINE('',#631,#159);
#116=LINE('',#633,#160);
#117=LINE('',#634,#161);
#118=LINE('',#637,#162);
#119=LINE('',#639,#163);
#120=LINE('',#640,#164);
#121=LINE('',#642,#165);
#122=LINE('',#643,#166);
#123=VECTOR('',#443,10.);
#124=VECTOR('',#446,10.);
#125=VECTOR('',#449,10.);
#126=VECTOR('',#450,10.);
#127=VECTOR('',#451,10.);
#128=VECTOR('',#458,10.);
#129=VECTOR('',#461,10.);
#130=VECTOR('',#462,10.);
#131=VECTOR('',#467,10.);
#132=VECTOR('',#470,10.);
#133=VECTOR('',#473,10.);
#134=VECTOR('',#474,10.);
#135=VECTOR('',#475,10.);
#136=VECTOR('',#482,10.);
#137=VECTOR('',#485,10.);
#138=VECTOR('',#486,10.);
#139=VECTOR('',#489,10.);
#140=VECTOR('',#490,10.);
#141=VECTOR('',#491,10.);
#142=VECTOR('',#492,10.);
#143=VECTOR('',#495,10.);
#144=VECTOR('',#496,10.);
#145=VECTOR('',#497,10.);
#146=VECTOR('',#498,10.);
#147=VECTOR('',#501,10.);
#148=VECTOR('',#502,10.);
#149=VECTOR('',#505,10.);
#150=VECTOR('',#508,10.);
#151=VECTOR('',#509,10.);
#152=VECTOR('',#510,10.);
#153=VECTOR('',#513,10.);
#154=VECTOR('',#514,10.);
#155=VECTOR('',#515,10.);
#156=VECTOR('',#518,10.);
#157=VECTOR('',#519,10.);
#158=VECTOR('',#520,10.);
#159=VECTOR('',#523,10.);
#160=VECTOR('',#524,10.);
#161=VECTOR('',#525,10.);
#162=VECTOR('',#528,10.);
#163=VECTOR('',#529,10.);
#164=VECTOR('',#530,10.);
#165=VECTOR('',#533,10.);
#166=VECTOR('',#534,10.);
#167=CIRCLE('',#410,3.2);
#168=CIRCLE('',#411,3.2);
#169=CIRCLE('',#414,3.2);
#170=CIRCLE('',#415,3.2);
#171=CIRCLE('',#418,3.2);
#172=CIRCLE('',#419,3.2);
#173=CIRCLE('',#422,3.2);
#174=CIRCLE('',#423,3.2);
#175=VERTEX_POINT('',#541);
#176=VERTEX_POINT('',#542);
#177=VERTEX_POINT('',#544);
#178=VERTEX_POINT('',#546);
#179=VERTEX_POINT('',#550);
#180=VERTEX_POINT('',#552);
#181=VERTEX_POINT('',#556);
#182=VERTEX_POINT('',#558);
#183=VERTEX_POINT('',#565);
#184=VERTEX_POINT('',#566);
#185=VERTEX_POINT('',#568);
#186=VERTEX_POINT('',#570);
#187=VERTEX_POINT('',#574);
#188=VERTEX_POINT('',#576);
#189=VERTEX_POINT('',#580);
#190=VERTEX_POINT('',#582);
#191=VERTEX_POINT('',#589);
#192=VERTEX_POINT('',#590);
#193=VERTEX_POINT('',#592);
#194=VERTEX_POINT('',#594);
#195=VERTEX_POINT('',#598);
#196=VERTEX_POINT('',#599);
#197=VERTEX_POINT('',#601);
#198=VERTEX_POINT('',#603);
#199=VERTEX_POINT('',#612);
#200=VERTEX_POINT('',#614);
#201=VERTEX_POINT('',#618);
#202=VERTEX_POINT('',#620);
#203=VERTEX_POINT('',#624);
#204=VERTEX_POINT('',#626);
#205=VERTEX_POINT('',#630);
#206=VERTEX_POINT('',#632);
#207=VERTEX_POINT('',#636);
#208=VERTEX_POINT('',#638);
#209=EDGE_CURVE('',#175,#176,#167,.T.);
#210=EDGE_CURVE('',#177,#175,#79,.T.);
#211=EDGE_CURVE('',#178,#177,#168,.T.);
#212=EDGE_CURVE('',#178,#176,#80,.T.);
#213=EDGE_CURVE('',#176,#179,#81,.T.);
#214=EDGE_CURVE('',#180,#178,#82,.T.);
#215=EDGE_CURVE('',#180,#179,#83,.T.);
#216=EDGE_CURVE('',#179,#181,#169,.T.);
#217=EDGE_CURVE('',#182,#180,#170,.T.);
#218=EDGE_CURVE('',#182,#181,#84,.T.);
#219=EDGE_CURVE('',#181,#175,#85,.T.);
#220=EDGE_CURVE('',#177,#182,#86,.T.);
#221=EDGE_CURVE('',#183,#184,#171,.T.);
#222=EDGE_CURVE('',#185,#183,#87,.T.);
#223=EDGE_CURVE('',#186,#185,#172,.T.);
#224=EDGE_CURVE('',#186,#184,#88,.T.);
#225=EDGE_CURVE('',#184,#187,#89,.T.);
#226=EDGE_CURVE('',#188,#186,#90,.T.);
#227=EDGE_CURVE('',#188,#187,#91,.T.);
#228=EDGE_CURVE('',#187,#189,#173,.T.);
#229=EDGE_CURVE('',#190,#188,#174,.T.);
#230=EDGE_CURVE('',#190,#189,#92,.T.);
#231=EDGE_CURVE('',#189,#183,#93,.T.);
#232=EDGE_CURVE('',#185,#190,#94,.T.);
#233=EDGE_CURVE('',#191,#192,#95,.T.);
#234=EDGE_CURVE('',#191,#193,#96,.T.);
#235=EDGE_CURVE('',#194,#193,#97,.T.);
#236=EDGE_CURVE('',#192,#194,#98,.T.);
#237=EDGE_CURVE('',#195,#196,#99,.T.);
#238=EDGE_CURVE('',#197,#195,#100,.T.);
#239=EDGE_CURVE('',#198,#197,#101,.T.);
#240=EDGE_CURVE('',#196,#198,#102,.T.);
#241=EDGE_CURVE('',#193,#198,#103,.T.);
#242=EDGE_CURVE('',#196,#191,#104,.T.);
#243=EDGE_CURVE('',#194,#197,#105,.T.);
#244=EDGE_CURVE('',#199,#196,#106,.T.);
#245=EDGE_CURVE('',#200,#199,#107,.T.);
#246=EDGE_CURVE('',#200,#195,#108,.T.);
#247=EDGE_CURVE('',#192,#201,#109,.T.);
#248=EDGE_CURVE('',#201,#202,#110,.T.);
#249=EDGE_CURVE('',#191,#202,#111,.T.);
#250=EDGE_CURVE('',#203,#200,#112,.T.);
#251=EDGE_CURVE('',#203,#204,#113,.T.);
#252=EDGE_CURVE('',#204,#201,#114,.T.);
#253=EDGE_CURVE('',#202,#205,#115,.T.);
#254=EDGE_CURVE('',#206,#205,#116,.T.);
#255=EDGE_CURVE('',#199,#206,#117,.T.);
#256=EDGE_CURVE('',#205,#207,#118,.T.);
#257=EDGE_CURVE('',#208,#207,#119,.T.);
#258=EDGE_CURVE('',#206,#208,#120,.T.);
#259=EDGE_CURVE('',#207,#204,#121,.T.);
#260=EDGE_CURVE('',#208,#203,#122,.T.);
#261=ORIENTED_EDGE('',*,*,#209,.F.);
#262=ORIENTED_EDGE('',*,*,#210,.F.);
#263=ORIENTED_EDGE('',*,*,#211,.F.);
#264=ORIENTED_EDGE('',*,*,#212,.T.);
#265=ORIENTED_EDGE('',*,*,#213,.F.);
#266=ORIENTED_EDGE('',*,*,#212,.F.);
#267=ORIENTED_EDGE('',*,*,#214,.F.);
#268=ORIENTED_EDGE('',*,*,#215,.T.);
#269=ORIENTED_EDGE('',*,*,#216,.F.);
#270=ORIENTED_EDGE('',*,*,#215,.F.);
#271=ORIENTED_EDGE('',*,*,#217,.F.);
#272=ORIENTED_EDGE('',*,*,#218,.T.);
#273=ORIENTED_EDGE('',*,*,#219,.F.);
#274=ORIENTED_EDGE('',*,*,#218,.F.);
#275=ORIENTED_EDGE('',*,*,#220,.F.);
#276=ORIENTED_EDGE('',*,*,#210,.T.);
#277=ORIENTED_EDGE('',*,*,#221,.F.);
#278=ORIENTED_EDGE('',*,*,#222,.F.);
#279=ORIENTED_EDGE('',*,*,#223,.F.);
#280=ORIENTED_EDGE('',*,*,#224,.T.);
#281=ORIENTED_EDGE('',*,*,#225,.F.);
#282=ORIENTED_EDGE('',*,*,#224,.F.);
#283=ORIENTED_EDGE('',*,*,#226,.F.);
#284=ORIENTED_EDGE('',*,*,#227,.T.);
#285=ORIENTED_EDGE('',*,*,#228,.F.);
#286=ORIENTED_EDGE('',*,*,#227,.F.);
#287=ORIENTED_EDGE('',*,*,#229,.F.);
#288=ORIENTED_EDGE('',*,*,#230,.T.);
#289=ORIENTED_EDGE('',*,*,#231,.F.);
#290=ORIENTED_EDGE('',*,*,#230,.F.);
#291=ORIENTED_EDGE('',*,*,#232,.F.);
#292=ORIENTED_EDGE('',*,*,#222,.T.);
#293=ORIENTED_EDGE('',*,*,#233,.F.);
#294=ORIENTED_EDGE('',*,*,#234,.T.);
#295=ORIENTED_EDGE('',*,*,#235,.F.);
#296=ORIENTED_EDGE('',*,*,#236,.F.);
#297=ORIENTED_EDGE('',*,*,#237,.F.);
#298=ORIENTED_EDGE('',*,*,#238,.F.);
#299=ORIENTED_EDGE('',*,*,#239,.F.);
#300=ORIENTED_EDGE('',*,*,#240,.F.);
#301=ORIENTED_EDGE('',*,*,#241,.F.);
#302=ORIENTED_EDGE('',*,*,#234,.F.);
#303=ORIENTED_EDGE('',*,*,#242,.F.);
#304=ORIENTED_EDGE('',*,*,#240,.T.);
#305=ORIENTED_EDGE('',*,*,#228,.T.);
#306=ORIENTED_EDGE('',*,*,#231,.T.);
#307=ORIENTED_EDGE('',*,*,#221,.T.);
#308=ORIENTED_EDGE('',*,*,#225,.T.);
#309=ORIENTED_EDGE('',*,*,#239,.T.);
#310=ORIENTED_EDGE('',*,*,#243,.F.);
#311=ORIENTED_EDGE('',*,*,#235,.T.);
#312=ORIENTED_EDGE('',*,*,#241,.T.);
#313=ORIENTED_EDGE('',*,*,#216,.T.);
#314=ORIENTED_EDGE('',*,*,#219,.T.);
#315=ORIENTED_EDGE('',*,*,#209,.T.);
#316=ORIENTED_EDGE('',*,*,#213,.T.);
#317=ORIENTED_EDGE('',*,*,#237,.T.);
#318=ORIENTED_EDGE('',*,*,#244,.F.);
#319=ORIENTED_EDGE('',*,*,#245,.F.);
#320=ORIENTED_EDGE('',*,*,#246,.T.);
#321=ORIENTED_EDGE('',*,*,#233,.T.);
#322=ORIENTED_EDGE('',*,*,#247,.T.);
#323=ORIENTED_EDGE('',*,*,#248,.T.);
#324=ORIENTED_EDGE('',*,*,#249,.F.);
#325=ORIENTED_EDGE('',*,*,#236,.T.);
#326=ORIENTED_EDGE('',*,*,#243,.T.);
#327=ORIENTED_EDGE('',*,*,#238,.T.);
#328=ORIENTED_EDGE('',*,*,#246,.F.);
#329=ORIENTED_EDGE('',*,*,#250,.F.);
#330=ORIENTED_EDGE('',*,*,#251,.T.);
#331=ORIENTED_EDGE('',*,*,#252,.T.);
#332=ORIENTED_EDGE('',*,*,#247,.F.);
#333=ORIENTED_EDGE('',*,*,#253,.T.);
#334=ORIENTED_EDGE('',*,*,#254,.F.);
#335=ORIENTED_EDGE('',*,*,#255,.F.);
#336=ORIENTED_EDGE('',*,*,#244,.T.);
#337=ORIENTED_EDGE('',*,*,#242,.T.);
#338=ORIENTED_EDGE('',*,*,#249,.T.);
#339=ORIENTED_EDGE('',*,*,#256,.T.);
#340=ORIENTED_EDGE('',*,*,#257,.F.);
#341=ORIENTED_EDGE('',*,*,#258,.F.);
#342=ORIENTED_EDGE('',*,*,#254,.T.);
#343=ORIENTED_EDGE('',*,*,#229,.T.);
#344=ORIENTED_EDGE('',*,*,#226,.T.);
#345=ORIENTED_EDGE('',*,*,#223,.T.);
#346=ORIENTED_EDGE('',*,*,#232,.T.);
#347=ORIENTED_EDGE('',*,*,#259,.T.);
#348=ORIENTED_EDGE('',*,*,#251,.F.);
#349=ORIENTED_EDGE('',*,*,#260,.F.);
#350=ORIENTED_EDGE('',*,*,#257,.T.);
#351=ORIENTED_EDGE('',*,*,#217,.T.);
#352=ORIENTED_EDGE('',*,*,#214,.T.);
#353=ORIENTED_EDGE('',*,*,#211,.T.);
#354=ORIENTED_EDGE('',*,*,#220,.T.);
#355=ORIENTED_EDGE('',*,*,#252,.F.);
#356=ORIENTED_EDGE('',*,*,#259,.F.);
#357=ORIENTED_EDGE('',*,*,#256,.F.);
#358=ORIENTED_EDGE('',*,*,#253,.F.);
#359=ORIENTED_EDGE('',*,*,#248,.F.);
#360=ORIENTED_EDGE('',*,*,#260,.T.);
#361=ORIENTED_EDGE('',*,*,#250,.T.);
#362=ORIENTED_EDGE('',*,*,#245,.T.);
#363=ORIENTED_EDGE('',*,*,#255,.T.);
#364=ORIENTED_EDGE('',*,*,#258,.T.);
#365=CYLINDRICAL_SURFACE('',#409,3.2);
#366=CYLINDRICAL_SURFACE('',#413,3.2);
#367=CYLINDRICAL_SURFACE('',#417,3.2);
#368=CYLINDRICAL_SURFACE('',#421,3.2);
#369=ADVANCED_FACE('',(#35),#365,.F.);
#370=ADVANCED_FACE('',(#36),#19,.T.);
#371=ADVANCED_FACE('',(#37),#366,.F.);
#372=ADVANCED_FACE('',(#38),#20,.T.);
#373=ADVANCED_FACE('',(#39),#367,.F.);
#374=ADVANCED_FACE('',(#40),#21,.F.);
#375=ADVANCED_FACE('',(#41),#368,.F.);
#376=ADVANCED_FACE('',(#42),#22,.F.);
#377=ADVANCED_FACE('',(#43),#23,.F.);
#378=ADVANCED_FACE('',(#44),#24,.F.);
#379=ADVANCED_FACE('',(#45,#15),#25,.F.);
#380=ADVANCED_FACE('',(#46,#16),#26,.T.);
#381=ADVANCED_FACE('',(#47),#27,.T.);
#382=ADVANCED_FACE('',(#48),#28,.T.);
#383=ADVANCED_FACE('',(#49),#29,.T.);
#384=ADVANCED_FACE('',(#50),#30,.T.);
#385=ADVANCED_FACE('',(#51,#17),#31,.T.);
#386=ADVANCED_FACE('',(#52,#18),#32,.T.);
#387=ADVANCED_FACE('',(#53),#33,.T.);
#388=ADVANCED_FACE('',(#54),#34,.F.);
#389=CLOSED_SHELL('',(#369,#370,#371,#372,#373,#374,#375,#376,#377,#378,
#379,#380,#381,#382,#383,#384,#385,#386,#387,#388));
#390=DERIVED_UNIT_ELEMENT(#392,1.);
#391=DERIVED_UNIT_ELEMENT(#651,3.);
#392=(
MASS_UNIT()
NAMED_UNIT(*)
SI_UNIT($,.GRAM.)
);
#393=DERIVED_UNIT((#390,#391));
#394=MEASURE_REPRESENTATION_ITEM('density measure',
POSITIVE_RATIO_MEASURE(1.06),#393);
#395=PROPERTY_DEFINITION_REPRESENTATION(#400,#397);
#396=PROPERTY_DEFINITION_REPRESENTATION(#401,#398);
#397=REPRESENTATION('material name',(#399),#648);
#398=REPRESENTATION('density',(#394),#648);
#399=DESCRIPTIVE_REPRESENTATION_ITEM('Plast ABS \X2\010D\X0\ern\X\FD',
'Plast ABS \X2\010D\X0\ern\X\FD');
#400=PROPERTY_DEFINITION('material property','material name',#658);
#401=PROPERTY_DEFINITION('material property','density of part',#658);
#402=DATE_TIME_ROLE('creation_date');
#403=CC_DESIGN_DATE_AND_TIME_ASSIGNMENT(#404,#402,(#658));
#404=DATE_AND_TIME(#405,#406);
#405=CALENDAR_DATE(2014,3,1);
#406=LOCAL_TIME(0,0,0.,#407);
#407=COORDINATED_UNIVERSAL_TIME_OFFSET(0,0,.BEHIND.);
#408=AXIS2_PLACEMENT_3D('placement',#539,#437,#438);
#409=AXIS2_PLACEMENT_3D('',#540,#439,#440);
#410=AXIS2_PLACEMENT_3D('',#543,#441,#442);
#411=AXIS2_PLACEMENT_3D('',#547,#444,#445);
#412=AXIS2_PLACEMENT_3D('',#549,#447,#448);
#413=AXIS2_PLACEMENT_3D('',#555,#452,#453);
#414=AXIS2_PLACEMENT_3D('',#557,#454,#455);
#415=AXIS2_PLACEMENT_3D('',#559,#456,#457);
#416=AXIS2_PLACEMENT_3D('',#561,#459,#460);
#417=AXIS2_PLACEMENT_3D('',#564,#463,#464);
#418=AXIS2_PLACEMENT_3D('',#567,#465,#466);
#419=AXIS2_PLACEMENT_3D('',#571,#468,#469);
#420=AXIS2_PLACEMENT_3D('',#573,#471,#472);
#421=AXIS2_PLACEMENT_3D('',#579,#476,#477);
#422=AXIS2_PLACEMENT_3D('',#581,#478,#479);
#423=AXIS2_PLACEMENT_3D('',#583,#480,#481);
#424=AXIS2_PLACEMENT_3D('',#585,#483,#484);
#425=AXIS2_PLACEMENT_3D('',#588,#487,#488);
#426=AXIS2_PLACEMENT_3D('',#597,#493,#494);
#427=AXIS2_PLACEMENT_3D('',#606,#499,#500);
#428=AXIS2_PLACEMENT_3D('',#609,#503,#504);
#429=AXIS2_PLACEMENT_3D('',#611,#506,#507);
#430=AXIS2_PLACEMENT_3D('',#617,#511,#512);
#431=AXIS2_PLACEMENT_3D('',#623,#516,#517);
#432=AXIS2_PLACEMENT_3D('',#629,#521,#522);
#433=AXIS2_PLACEMENT_3D('',#635,#526,#527);
#434=AXIS2_PLACEMENT_3D('',#641,#531,#532);
#435=AXIS2_PLACEMENT_3D('',#644,#535,#536);
#436=AXIS2_PLACEMENT_3D('',#645,#537,#538);
#437=DIRECTION('axis',(0.,0.,1.));
#438=DIRECTION('refdir',(1.,0.,0.));
#439=DIRECTION('center_axis',(-1.,-6.34413156928661E-17,0.));
#440=DIRECTION('ref_axis',(0.,0.,-1.));
#441=DIRECTION('center_axis',(-1.,8.79158247220324E-31,1.87314326205803E-30));
#442=DIRECTION('ref_axis',(0.,0.,-1.));
#443=DIRECTION('',(1.,6.34413156928661E-17,0.));
#444=DIRECTION('center_axis',(1.,3.07840480892132E-34,0.));
#445=DIRECTION('ref_axis',(0.,0.,-1.));
#446=DIRECTION('',(1.,6.34413156928661E-17,0.));
#447=DIRECTION('center_axis',(5.63472075157866E-32,-8.88178419700125E-16,
-1.));
#448=DIRECTION('ref_axis',(-2.22044604925031E-16,1.,-8.88178419700125E-16));
#449=DIRECTION('',(8.79158247220322E-31,1.,-8.88178419700125E-16));
#450=DIRECTION('',(3.07840480892132E-34,-1.,8.88178419700125E-16));
#451=DIRECTION('',(1.,6.34413156928661E-17,0.));
#452=DIRECTION('center_axis',(-1.,-6.34413156928661E-17,0.));
#453=DIRECTION('ref_axis',(0.,0.,1.));
#454=DIRECTION('center_axis',(-1.,8.79158247220324E-31,1.87314326205803E-30));
#455=DIRECTION('ref_axis',(0.,0.,1.));
#456=DIRECTION('center_axis',(1.,3.07840480892132E-34,0.));
#457=DIRECTION('ref_axis',(0.,0.,1.));
#458=DIRECTION('',(1.,6.34413156928661E-17,0.));
#459=DIRECTION('center_axis',(-2.81736037578933E-32,4.44089209850063E-16,
1.));
#460=DIRECTION('ref_axis',(2.22044604925031E-16,-1.,4.44089209850063E-16));
#461=DIRECTION('',(-8.79158247220323E-31,-1.,4.44089209850063E-16));
#462=DIRECTION('',(-3.07840480892132E-34,1.,-4.44089209850063E-16));
#463=DIRECTION('center_axis',(-1.58603289232165E-16,1.,0.));
#464=DIRECTION('ref_axis',(0.,0.,1.));
#465=DIRECTION('center_axis',(0.,-1.,0.));
#466=DIRECTION('ref_axis',(0.,0.,1.));
#467=DIRECTION('',(-1.58603289232165E-16,1.,0.));
#468=DIRECTION('center_axis',(-1.83697019872103E-16,1.,0.));
#469=DIRECTION('ref_axis',(0.,0.,1.));
#470=DIRECTION('',(-1.58603289232165E-16,1.,0.));
#471=DIRECTION('center_axis',(8.88178419700125E-16,1.40868018789466E-31,
1.));
#472=DIRECTION('ref_axis',(1.,0.,-8.88178419700125E-16));
#473=DIRECTION('',(-1.,0.,8.88178419700125E-16));
#474=DIRECTION('',(1.,1.83697019872103E-16,-8.88178419700125E-16));
#475=DIRECTION('',(-1.58603289232165E-16,1.,0.));
#476=DIRECTION('center_axis',(-1.58603289232165E-16,1.,0.));
#477=DIRECTION('ref_axis',(0.,0.,-1.));
#478=DIRECTION('center_axis',(0.,-1.,0.));
#479=DIRECTION('ref_axis',(0.,0.,-1.));
#480=DIRECTION('center_axis',(-1.83697019872103E-16,1.,0.));
#481=DIRECTION('ref_axis',(0.,0.,-1.));
#482=DIRECTION('',(-1.58603289232165E-16,1.,0.));
#483=DIRECTION('center_axis',(-4.44089209850063E-16,-7.04340093947332E-32,
-1.));
#484=DIRECTION('ref_axis',(-1.,0.,4.44089209850063E-16));
#485=DIRECTION('',(1.,0.,-4.44089209850063E-16));
#486=DIRECTION('',(-1.,-1.83697019872103E-16,4.44089209850063E-16));
#487=DIRECTION('center_axis',(0.,-3.86164530304402E-16,1.));
#488=DIRECTION('ref_axis',(1.,0.,0.));
#489=DIRECTION('',(-0.707106781186548,0.707106781186547,2.73059558031961E-16));
#490=DIRECTION('',(-1.,0.,0.));
#491=DIRECTION('',(0.,-1.,-3.86164530304402E-16));
#492=DIRECTION('',(-1.,0.,0.));
#493=DIRECTION('center_axis',(0.,1.93082265152201E-16,-1.));
#494=DIRECTION('ref_axis',(-1.,0.,0.));
#495=DIRECTION('',(0.707106781186548,-0.707106781186547,-1.3652977901598E-16));
#496=DIRECTION('',(1.,0.,0.));
#497=DIRECTION('',(0.,1.,1.93082265152201E-16));
#498=DIRECTION('',(-1.,0.,0.));
#499=DIRECTION('center_axis',(0.,-1.,0.));
#500=DIRECTION('ref_axis',(0.,0.,-1.));
#501=DIRECTION('',(0.,0.,-1.));
#502=DIRECTION('',(0.,0.,1.));
#503=DIRECTION('center_axis',(1.,-8.79158247220324E-31,-1.87314326205803E-30));
#504=DIRECTION('ref_axis',(-1.87314326205803E-30,0.,-1.));
#505=DIRECTION('',(-1.87314326205803E-30,0.,-1.));
#506=DIRECTION('center_axis',(0.707106781186547,0.707106781186548,0.));
#507=DIRECTION('ref_axis',(0.,0.,-1.));
#508=DIRECTION('',(0.,0.,1.));
#509=DIRECTION('',(0.707106781186548,-0.707106781186547,0.));
#510=DIRECTION('',(0.,0.,1.));
#511=DIRECTION('center_axis',(0.707106781186547,0.707106781186548,0.));
#512=DIRECTION('ref_axis',(0.,0.,-1.));
#513=DIRECTION('',(0.,0.,1.));
#514=DIRECTION('',(0.707106781186548,-0.707106781186547,0.));
#515=DIRECTION('',(0.,0.,1.));
#516=DIRECTION('center_axis',(0.,1.,0.));
#517=DIRECTION('ref_axis',(0.,0.,1.));
#518=DIRECTION('',(1.,0.,0.));
#519=DIRECTION('',(0.,0.,1.));
#520=DIRECTION('',(1.,0.,0.));
#521=DIRECTION('center_axis',(1.,0.,0.));
#522=DIRECTION('ref_axis',(0.,0.,-1.));
#523=DIRECTION('',(0.,-1.,0.));
#524=DIRECTION('',(0.,0.,1.));
#525=DIRECTION('',(0.,-1.,0.));
#526=DIRECTION('center_axis',(1.83697019872103E-16,-1.,0.));
#527=DIRECTION('ref_axis',(0.,0.,-1.));
#528=DIRECTION('',(-1.,-1.83697019872103E-16,0.));
#529=DIRECTION('',(0.,0.,1.));
#530=DIRECTION('',(-1.,-1.83697019872103E-16,0.));
#531=DIRECTION('center_axis',(-1.,-3.07840480892132E-34,0.));
#532=DIRECTION('ref_axis',(0.,0.,1.));
#533=DIRECTION('',(-3.07840480892132E-34,1.,0.));
#534=DIRECTION('',(-3.07840480892132E-34,1.,0.));
#535=DIRECTION('center_axis',(0.,0.,1.));
#536=DIRECTION('ref_axis',(1.,0.,0.));
#537=DIRECTION('center_axis',(0.,0.,1.));
#538=DIRECTION('ref_axis',(1.,0.,0.));
#539=CARTESIAN_POINT('',(0.,0.,0.));
#540=CARTESIAN_POINT('Origin',(-4.60171020635139E-16,12.,14.));
#541=CARTESIAN_POINT('',(3.,12.,10.8));
#542=CARTESIAN_POINT('',(3.,12.,17.2));
#543=CARTESIAN_POINT('Origin',(3.,12.,14.));
#544=CARTESIAN_POINT('',(-4.60171020635139E-16,12.,10.8));
#545=CARTESIAN_POINT('',(-4.60171020635139E-16,12.,10.8));
#546=CARTESIAN_POINT('',(-4.60171020635139E-16,12.,17.2));
#547=CARTESIAN_POINT('Origin',(-7.61295788314394E-16,12.,14.));
#548=CARTESIAN_POINT('',(-4.60171020635139E-16,12.,17.2));
#549=CARTESIAN_POINT('Origin',(-6.51908945899781E-16,17.,17.2));
#550=CARTESIAN_POINT('',(3.,17.,17.2));
#551=CARTESIAN_POINT('',(3.,16.75,17.2));
#552=CARTESIAN_POINT('',(-6.51908945899781E-16,17.,17.2));
#553=CARTESIAN_POINT('',(0.,8.50000000000001,17.2));
#554=CARTESIAN_POINT('',(-6.51908945899781E-16,17.,17.2));
#555=CARTESIAN_POINT('Origin',(-6.51908945899781E-16,17.,14.));
#556=CARTESIAN_POINT('',(3.,17.,10.8));
#557=CARTESIAN_POINT('Origin',(3.,17.,14.));
#558=CARTESIAN_POINT('',(-6.51908945899781E-16,17.,10.8));
#559=CARTESIAN_POINT('Origin',(-1.07850236677872E-15,17.,14.));
#560=CARTESIAN_POINT('',(-6.51908945899781E-16,17.,10.8));
#561=CARTESIAN_POINT('Origin',(-4.60171020635139E-16,12.,10.8));
#562=CARTESIAN_POINT('',(3.,14.25,10.8));
#563=CARTESIAN_POINT('',(0.,6.,10.8));
#564=CARTESIAN_POINT('Origin',(17.,3.12284933782575E-15,14.));
#565=CARTESIAN_POINT('',(17.,5.00000000000001,10.8));
#566=CARTESIAN_POINT('',(17.,5.00000000000001,17.2));
#567=CARTESIAN_POINT('Origin',(17.,5.,14.));
#568=CARTESIAN_POINT('',(17.,3.12284933782575E-15,10.8));
#569=CARTESIAN_POINT('',(17.,3.12284933782575E-15,10.8));
#570=CARTESIAN_POINT('',(17.,3.12284933782575E-15,17.2));
#571=CARTESIAN_POINT('Origin',(17.,3.39888037486507E-15,14.));
#572=CARTESIAN_POINT('',(17.,3.12284933782575E-15,17.2));
#573=CARTESIAN_POINT('Origin',(17.,3.12284933782575E-15,17.2));
#574=CARTESIAN_POINT('',(12.,5.00000000000001,17.2));
#575=CARTESIAN_POINT('',(22.5,5.00000000000001,17.2));
#576=CARTESIAN_POINT('',(12.,2.20436423846524E-15,17.2));
#577=CARTESIAN_POINT('',(22.5,4.13318294712232E-15,17.2));
#578=CARTESIAN_POINT('',(12.,2.20436423846524E-15,17.2));
#579=CARTESIAN_POINT('Origin',(12.,2.20436423846524E-15,14.));
#580=CARTESIAN_POINT('',(12.,5.00000000000001,10.8));
#581=CARTESIAN_POINT('Origin',(12.,5.,14.));
#582=CARTESIAN_POINT('',(12.,2.20436423846524E-15,10.8));
#583=CARTESIAN_POINT('Origin',(12.,2.60586392870424E-15,14.));
#584=CARTESIAN_POINT('',(12.,2.20436423846524E-15,10.8));
#585=CARTESIAN_POINT('Origin',(12.,2.20436423846524E-15,10.8));
#586=CARTESIAN_POINT('',(20.,5.00000000000001,10.8));
#587=CARTESIAN_POINT('',(20.,3.67394039744206E-15,10.8));
#588=CARTESIAN_POINT('Origin',(28.,28.,25.));
#589=CARTESIAN_POINT('',(28.,5.00000000000001,25.));
#590=CARTESIAN_POINT('',(4.99999999999998,28.,25.));
#591=CARTESIAN_POINT('',(10.75,22.25,25.));
#592=CARTESIAN_POINT('',(3.,5.00000000000001,25.));
#593=CARTESIAN_POINT('',(28.,5.00000000000001,25.));
#594=CARTESIAN_POINT('',(3.,28.,25.));
#595=CARTESIAN_POINT('',(3.,28.,25.));
#596=CARTESIAN_POINT('',(14.,28.,25.));
#597=CARTESIAN_POINT('Origin',(28.,5.00000000000001,3.));
#598=CARTESIAN_POINT('',(4.99999999999998,28.,3.));
#599=CARTESIAN_POINT('',(28.,5.00000000000001,3.));
#600=CARTESIAN_POINT('',(16.5,16.5,3.));
#601=CARTESIAN_POINT('',(3.,28.,3.));
#602=CARTESIAN_POINT('',(14.,28.,3.));
#603=CARTESIAN_POINT('',(3.,5.00000000000001,3.));
#604=CARTESIAN_POINT('',(3.,5.00000000000001,3.));
#605=CARTESIAN_POINT('',(28.,5.00000000000001,3.));
#606=CARTESIAN_POINT('Origin',(28.,5.00000000000001,25.));
#607=CARTESIAN_POINT('',(3.,5.00000000000001,25.));
#608=CARTESIAN_POINT('',(28.,5.00000000000001,0.));
#609=CARTESIAN_POINT('Origin',(3.,16.5,14.));
#610=CARTESIAN_POINT('',(3.,28.,7.));
#611=CARTESIAN_POINT('Origin',(4.99999999999998,28.,0.));
#612=CARTESIAN_POINT('',(28.,5.00000000000001,0.));
#613=CARTESIAN_POINT('',(28.,5.00000000000001,0.));
#614=CARTESIAN_POINT('',(4.99999999999998,28.,0.));
#615=CARTESIAN_POINT('',(4.99999999999998,28.,0.));
#616=CARTESIAN_POINT('',(4.99999999999998,28.,0.));
#617=CARTESIAN_POINT('Origin',(4.99999999999998,28.,0.));
#618=CARTESIAN_POINT('',(4.99999999999998,28.,28.));
#619=CARTESIAN_POINT('',(4.99999999999998,28.,0.));
#620=CARTESIAN_POINT('',(28.,5.00000000000001,28.));
#621=CARTESIAN_POINT('',(4.99999999999998,28.,28.));
#622=CARTESIAN_POINT('',(28.,5.00000000000001,0.));
#623=CARTESIAN_POINT('Origin',(-8.61953346497968E-33,28.,0.));
#624=CARTESIAN_POINT('',(-8.61953346497968E-33,28.,0.));
#625=CARTESIAN_POINT('',(-8.61953346497968E-33,28.,0.));
#626=CARTESIAN_POINT('',(-8.61953346497968E-33,28.,28.));
#627=CARTESIAN_POINT('',(-8.61953346497968E-33,28.,0.));
#628=CARTESIAN_POINT('',(-8.61953346497968E-33,28.,28.));
#629=CARTESIAN_POINT('Origin',(28.,5.00000000000001,0.));
#630=CARTESIAN_POINT('',(28.,5.14351655641888E-15,28.));
#631=CARTESIAN_POINT('',(28.,5.00000000000001,28.));
#632=CARTESIAN_POINT('',(28.,5.14351655641888E-15,0.));
#633=CARTESIAN_POINT('',(28.,5.14351655641888E-15,0.));
#634=CARTESIAN_POINT('',(28.,5.00000000000001,0.));
#635=CARTESIAN_POINT('Origin',(28.,5.14351655641888E-15,0.));
#636=CARTESIAN_POINT('',(0.,0.,28.));
#637=CARTESIAN_POINT('',(28.,5.14351655641888E-15,28.));
#638=CARTESIAN_POINT('',(0.,0.,0.));
#639=CARTESIAN_POINT('',(0.,0.,0.));
#640=CARTESIAN_POINT('',(28.,5.14351655641888E-15,0.));
#641=CARTESIAN_POINT('Origin',(0.,0.,0.));
#642=CARTESIAN_POINT('',(0.,0.,28.));
#643=CARTESIAN_POINT('',(0.,0.,0.));
#644=CARTESIAN_POINT('Origin',(10.9735911304971,10.9735911304971,28.));
#645=CARTESIAN_POINT('Origin',(10.9735911304971,10.9735911304971,0.));
#646=UNCERTAINTY_MEASURE_WITH_UNIT(LENGTH_MEASURE(0.01),#650,
'DISTANCE_ACCURACY_VALUE',
'Maximum model space distance between geometric entities at asserted c
onnectivities');
#647=UNCERTAINTY_MEASURE_WITH_UNIT(LENGTH_MEASURE(0.01),#650,
'DISTANCE_ACCURACY_VALUE',
'Maximum model space distance between geometric entities at asserted c
onnectivities');
#648=(
GEOMETRIC_REPRESENTATION_CONTEXT(3)
GLOBAL_UNCERTAINTY_ASSIGNED_CONTEXT((#646))
GLOBAL_UNIT_ASSIGNED_CONTEXT((#650,#652,#653))
REPRESENTATION_CONTEXT('','3D')
);
#649=(
GEOMETRIC_REPRESENTATION_CONTEXT(3)
GLOBAL_UNCERTAINTY_ASSIGNED_CONTEXT((#647))
GLOBAL_UNIT_ASSIGNED_CONTEXT((#650,#652,#653))
REPRESENTATION_CONTEXT('','3D')
);
#650=(
LENGTH_UNIT()
NAMED_UNIT(*)
SI_UNIT(.MILLI.,.METRE.)
);
#651=(
LENGTH_UNIT()
NAMED_UNIT(*)
SI_UNIT(.CENTI.,.METRE.)
);
#652=(
NAMED_UNIT(*)
PLANE_ANGLE_UNIT()
SI_UNIT($,.RADIAN.)
);
#653=(
NAMED_UNIT(*)
SI_UNIT($,.STERADIAN.)
SOLID_ANGLE_UNIT()
);
#654=SHAPE_DEFINITION_REPRESENTATION(#655,#656);
#655=PRODUCT_DEFINITION_SHAPE('',$,#658);
#656=SHAPE_REPRESENTATION('',(#408),#648);
#657=DESIGN_CONTEXT('part definition',#662,'design');
#658=PRODUCT_DEFINITION('302828','302828',#659,#657);
#659=PRODUCT_DEFINITION_FORMATION('',$,#664);
#660=PRODUCT_RELATED_PRODUCT_CATEGORY('302828','302828',(#664));
#661=APPLICATION_PROTOCOL_DEFINITION('international standard',
'ap203_configuration_controlled_3d_design_of_mechanical_parts_and_asse
mblies_mim_lf',2004,#662);
#662=APPLICATION_CONTEXT(
'Configuration Controlled 3D Design of Mechanical Parts and Assemblies');
#663=MECHANICAL_CONTEXT('part definition',#662,'mechanical');
#664=PRODUCT('302828','302828','K\X2\0105\X0\townik usztywniaj\X2\0105\X0\c
y 28x28 PA6',(#663));
#665=PRESENTATION_STYLE_ASSIGNMENT((#666));
#666=SURFACE_STYLE_USAGE(.BOTH.,#669);
#667=SURFACE_STYLE_RENDERING_WITH_PROPERTIES($,#673,(#668));
#668=SURFACE_STYLE_TRANSPARENT(0.);
#669=SURFACE_SIDE_STYLE('',(#670,#667));
#670=SURFACE_STYLE_FILL_AREA(#671);
#671=FILL_AREA_STYLE('',(#672));
#672=FILL_AREA_STYLE_COLOUR('',#673);
#673=COLOUR_RGB('',0.529411764705882,0.529411764705882,0.529411764705882);
ENDSEC;
END-ISO-10303-21;
