ISO-10303-21;
HEADER;
/* Generated by software containing ST-Developer
 * from STEP Tools, Inc. (www.steptools.com) 
 */

FILE_DESCRIPTION(
/* description */ ('K\X2\0105\X0\townik usztywniaj\X2\0105\X0\cy 12x25'),

/* implementation_level */ '2;1');

FILE_NAME(
/* name */ 
'W:\\_BIG DATA\\STP IGS\\Akcesoria\\Elementy po\X2\01420105\X0\czeniow
e\\STP\\K\X2\0105\X0\towniki\\301225.stp',
/* time_stamp */ '2022-10-07T10:03:18+02:00',
/* author */ ('aluteckkpl_am'),
/* organization */ (''),
/* preprocessor_version */ 'ST-DEVELOPER v18.1',
/* originating_system */ 'Autodesk Inventor 2021',
/* authorisation */ '');

FILE_SCHEMA (('CONFIG_CONTROL_DESIGN'));
ENDSEC;

DATA;
#10=MECHANICAL_DESIGN_GEOMETRIC_PRESENTATION_REPRESENTATION('',(#13),#456);
#11=SHAPE_REPRESENTATION_RELATIONSHIP('SRR','None',#463,#12);
#12=ADVANCED_BREP_SHAPE_REPRESENTATION('',(#14),#455);
#13=STYLED_ITEM('',(#472),#14);
#14=MANIFOLD_SOLID_BREP('T\X2\011B\X0\leso1',#256);
#15=LINE('',#395,#34);
#16=LINE('',#401,#35);
#17=LINE('',#408,#36);
#18=LINE('',#410,#37);
#19=LINE('',#412,#38);
#20=LINE('',#413,#39);
#21=LINE('',#423,#40);
#22=LINE('',#426,#41);
#23=LINE('',#432,#42);
#24=LINE('',#434,#43);
#25=LINE('',#435,#44);
#26=LINE('',#438,#45);
#27=LINE('',#440,#46);
#28=LINE('',#441,#47);
#29=LINE('',#444,#48);
#30=LINE('',#446,#49);
#31=LINE('',#447,#50);
#32=LINE('',#449,#51);
#33=LINE('',#450,#52);
#34=VECTOR('',#320,4.5);
#35=VECTOR('',#327,2.7);
#36=VECTOR('',#334,10.);
#37=VECTOR('',#335,10.);
#38=VECTOR('',#336,10.);
#39=VECTOR('',#337,10.);
#40=VECTOR('',#350,4.5);
#41=VECTOR('',#353,2.7);
#42=VECTOR('',#360,10.);
#43=VECTOR('',#361,10.);
#44=VECTOR('',#362,10.);
#45=VECTOR('',#365,10.);
#46=VECTOR('',#366,10.);
#47=VECTOR('',#367,10.);
#48=VECTOR('',#370,10.);
#49=VECTOR('',#371,10.);
#50=VECTOR('',#372,10.);
#51=VECTOR('',#375,10.);
#52=VECTOR('',#376,10.);
#53=ELLIPSE('',#281,6.36396103067893,4.5);
#54=ELLIPSE('',#282,6.36396103067892,4.5);
#55=ELLIPSE('',#283,6.36396103067892,4.5);
#56=ELLIPSE('',#284,6.36396103067893,4.5);
#57=ELLIPSE('',#289,6.36396103067893,4.5);
#58=CYLINDRICAL_SURFACE('',#280,4.5);
#59=CYLINDRICAL_SURFACE('',#285,2.7);
#60=CYLINDRICAL_SURFACE('',#294,4.5);
#61=CYLINDRICAL_SURFACE('',#295,2.7);
#62=FACE_BOUND('',#81,.T.);
#63=FACE_BOUND('',#85,.T.);
#64=FACE_BOUND('',#87,.T.);
#65=FACE_BOUND('',#93,.T.);
#66=FACE_BOUND('',#95,.T.);
#67=FACE_OUTER_BOUND('',#80,.T.);
#68=FACE_OUTER_BOUND('',#82,.T.);
#69=FACE_OUTER_BOUND('',#83,.T.);
#70=FACE_OUTER_BOUND('',#84,.T.);
#71=FACE_OUTER_BOUND('',#86,.T.);
#72=FACE_OUTER_BOUND('',#88,.T.);
#73=FACE_OUTER_BOUND('',#89,.T.);
#74=FACE_OUTER_BOUND('',#90,.T.);
#75=FACE_OUTER_BOUND('',#91,.T.);
#76=FACE_OUTER_BOUND('',#92,.T.);
#77=FACE_OUTER_BOUND('',#94,.T.);
#78=FACE_OUTER_BOUND('',#96,.T.);
#79=FACE_OUTER_BOUND('',#97,.T.);
#80=EDGE_LOOP('',(#166,#167));
#81=EDGE_LOOP('',(#168));
#82=EDGE_LOOP('',(#169,#170,#171,#172,#173,#174,#175,#176));
#83=EDGE_LOOP('',(#177,#178,#179,#180,#181));
#84=EDGE_LOOP('',(#182,#183,#184,#185));
#85=EDGE_LOOP('',(#186,#187,#188));
#86=EDGE_LOOP('',(#189,#190));
#87=EDGE_LOOP('',(#191));
#88=EDGE_LOOP('',(#192,#193,#194,#195,#196,#197,#198));
#89=EDGE_LOOP('',(#199,#200,#201,#202,#203));
#90=EDGE_LOOP('',(#204,#205,#206,#207));
#91=EDGE_LOOP('',(#208,#209,#210,#211));
#92=EDGE_LOOP('',(#212,#213,#214,#215));
#93=EDGE_LOOP('',(#216,#217));
#94=EDGE_LOOP('',(#218,#219,#220,#221));
#95=EDGE_LOOP('',(#222,#223));
#96=EDGE_LOOP('',(#224,#225,#226,#227,#228));
#97=EDGE_LOOP('',(#229,#230,#231,#232,#233));
#98=CIRCLE('',#277,4.5);
#99=CIRCLE('',#278,4.5);
#100=CIRCLE('',#279,2.7);
#101=CIRCLE('',#286,2.7);
#102=CIRCLE('',#287,2.7);
#103=CIRCLE('',#291,4.5);
#104=CIRCLE('',#292,4.5);
#105=CIRCLE('',#293,2.7);
#106=CIRCLE('',#296,2.7);
#107=CIRCLE('',#297,2.7);
#108=VERTEX_POINT('',#383);
#109=VERTEX_POINT('',#384);
#110=VERTEX_POINT('',#387);
#111=VERTEX_POINT('',#390);
#112=VERTEX_POINT('',#391);
#113=VERTEX_POINT('',#393);
#114=VERTEX_POINT('',#396);
#115=VERTEX_POINT('',#400);
#116=VERTEX_POINT('',#402);
#117=VERTEX_POINT('',#406);
#118=VERTEX_POINT('',#407);
#119=VERTEX_POINT('',#409);
#120=VERTEX_POINT('',#411);
#121=VERTEX_POINT('',#416);
#122=VERTEX_POINT('',#417);
#123=VERTEX_POINT('',#420);
#124=VERTEX_POINT('',#425);
#125=VERTEX_POINT('',#427);
#126=VERTEX_POINT('',#431);
#127=VERTEX_POINT('',#433);
#128=VERTEX_POINT('',#437);
#129=VERTEX_POINT('',#439);
#130=VERTEX_POINT('',#443);
#131=VERTEX_POINT('',#445);
#132=EDGE_CURVE('',#108,#109,#98,.T.);
#133=EDGE_CURVE('',#109,#108,#99,.T.);
#134=EDGE_CURVE('',#110,#110,#100,.T.);
#135=EDGE_CURVE('',#111,#112,#53,.T.);
#136=EDGE_CURVE('',#113,#111,#54,.T.);
#137=EDGE_CURVE('',#113,#109,#15,.T.);
#138=EDGE_CURVE('',#114,#113,#55,.T.);
#139=EDGE_CURVE('',#112,#114,#56,.T.);
#140=EDGE_CURVE('',#110,#115,#16,.T.);
#141=EDGE_CURVE('',#116,#115,#101,.T.);
#142=EDGE_CURVE('',#115,#116,#102,.T.);
#143=EDGE_CURVE('',#117,#118,#17,.T.);
#144=EDGE_CURVE('',#119,#118,#18,.T.);
#145=EDGE_CURVE('',#120,#119,#19,.T.);
#146=EDGE_CURVE('',#120,#117,#20,.T.);
#147=EDGE_CURVE('',#111,#114,#57,.T.);
#148=EDGE_CURVE('',#121,#122,#103,.T.);
#149=EDGE_CURVE('',#122,#121,#104,.T.);
#150=EDGE_CURVE('',#123,#123,#105,.T.);
#151=EDGE_CURVE('',#112,#122,#21,.T.);
#152=EDGE_CURVE('',#123,#124,#22,.T.);
#153=EDGE_CURVE('',#125,#124,#106,.T.);
#154=EDGE_CURVE('',#124,#125,#107,.T.);
#155=EDGE_CURVE('',#126,#117,#23,.T.);
#156=EDGE_CURVE('',#127,#120,#24,.T.);
#157=EDGE_CURVE('',#127,#126,#25,.T.);
#158=EDGE_CURVE('',#118,#128,#26,.T.);
#159=EDGE_CURVE('',#129,#128,#27,.T.);
#160=EDGE_CURVE('',#119,#129,#28,.T.);
#161=EDGE_CURVE('',#128,#130,#29,.T.);
#162=EDGE_CURVE('',#131,#130,#30,.T.);
#163=EDGE_CURVE('',#129,#131,#31,.T.);
#164=EDGE_CURVE('',#130,#126,#32,.T.);
#165=EDGE_CURVE('',#131,#127,#33,.T.);
#166=ORIENTED_EDGE('',*,*,#132,.T.);
#167=ORIENTED_EDGE('',*,*,#133,.T.);
#168=ORIENTED_EDGE('',*,*,#134,.F.);
#169=ORIENTED_EDGE('',*,*,#135,.F.);
#170=ORIENTED_EDGE('',*,*,#136,.F.);
#171=ORIENTED_EDGE('',*,*,#137,.T.);
#172=ORIENTED_EDGE('',*,*,#132,.F.);
#173=ORIENTED_EDGE('',*,*,#133,.F.);
#174=ORIENTED_EDGE('',*,*,#137,.F.);
#175=ORIENTED_EDGE('',*,*,#138,.F.);
#176=ORIENTED_EDGE('',*,*,#139,.F.);
#177=ORIENTED_EDGE('',*,*,#134,.T.);
#178=ORIENTED_EDGE('',*,*,#140,.T.);
#179=ORIENTED_EDGE('',*,*,#141,.F.);
#180=ORIENTED_EDGE('',*,*,#142,.F.);
#181=ORIENTED_EDGE('',*,*,#140,.F.);
#182=ORIENTED_EDGE('',*,*,#143,.T.);
#183=ORIENTED_EDGE('',*,*,#144,.F.);
#184=ORIENTED_EDGE('',*,*,#145,.F.);
#185=ORIENTED_EDGE('',*,*,#146,.T.);
#186=ORIENTED_EDGE('',*,*,#138,.T.);
#187=ORIENTED_EDGE('',*,*,#136,.T.);
#188=ORIENTED_EDGE('',*,*,#147,.T.);
#189=ORIENTED_EDGE('',*,*,#148,.T.);
#190=ORIENTED_EDGE('',*,*,#149,.T.);
#191=ORIENTED_EDGE('',*,*,#150,.F.);
#192=ORIENTED_EDGE('',*,*,#135,.T.);
#193=ORIENTED_EDGE('',*,*,#151,.T.);
#194=ORIENTED_EDGE('',*,*,#148,.F.);
#195=ORIENTED_EDGE('',*,*,#149,.F.);
#196=ORIENTED_EDGE('',*,*,#151,.F.);
#197=ORIENTED_EDGE('',*,*,#139,.T.);
#198=ORIENTED_EDGE('',*,*,#147,.F.);
#199=ORIENTED_EDGE('',*,*,#150,.T.);
#200=ORIENTED_EDGE('',*,*,#152,.T.);
#201=ORIENTED_EDGE('',*,*,#153,.F.);
#202=ORIENTED_EDGE('',*,*,#154,.F.);
#203=ORIENTED_EDGE('',*,*,#152,.F.);
#204=ORIENTED_EDGE('',*,*,#155,.T.);
#205=ORIENTED_EDGE('',*,*,#146,.F.);
#206=ORIENTED_EDGE('',*,*,#156,.F.);
#207=ORIENTED_EDGE('',*,*,#157,.T.);
#208=ORIENTED_EDGE('',*,*,#158,.T.);
#209=ORIENTED_EDGE('',*,*,#159,.F.);
#210=ORIENTED_EDGE('',*,*,#160,.F.);
#211=ORIENTED_EDGE('',*,*,#144,.T.);
#212=ORIENTED_EDGE('',*,*,#161,.T.);
#213=ORIENTED_EDGE('',*,*,#162,.F.);
#214=ORIENTED_EDGE('',*,*,#163,.F.);
#215=ORIENTED_EDGE('',*,*,#159,.T.);
#216=ORIENTED_EDGE('',*,*,#141,.T.);
#217=ORIENTED_EDGE('',*,*,#142,.T.);
#218=ORIENTED_EDGE('',*,*,#164,.T.);
#219=ORIENTED_EDGE('',*,*,#157,.F.);
#220=ORIENTED_EDGE('',*,*,#165,.F.);
#221=ORIENTED_EDGE('',*,*,#162,.T.);
#222=ORIENTED_EDGE('',*,*,#153,.T.);
#223=ORIENTED_EDGE('',*,*,#154,.T.);
#224=ORIENTED_EDGE('',*,*,#155,.F.);
#225=ORIENTED_EDGE('',*,*,#164,.F.);
#226=ORIENTED_EDGE('',*,*,#161,.F.);
#227=ORIENTED_EDGE('',*,*,#158,.F.);
#228=ORIENTED_EDGE('',*,*,#143,.F.);
#229=ORIENTED_EDGE('',*,*,#165,.T.);
#230=ORIENTED_EDGE('',*,*,#156,.T.);
#231=ORIENTED_EDGE('',*,*,#145,.T.);
#232=ORIENTED_EDGE('',*,*,#160,.T.);
#233=ORIENTED_EDGE('',*,*,#163,.T.);
#234=PLANE('',#276);
#235=PLANE('',#288);
#236=PLANE('',#290);
#237=PLANE('',#298);
#238=PLANE('',#299);
#239=PLANE('',#300);
#240=PLANE('',#301);
#241=PLANE('',#302);
#242=PLANE('',#303);
#243=ADVANCED_FACE('',(#67,#62),#234,.T.);
#244=ADVANCED_FACE('',(#68),#58,.F.);
#245=ADVANCED_FACE('',(#69),#59,.F.);
#246=ADVANCED_FACE('',(#70,#63),#235,.T.);
#247=ADVANCED_FACE('',(#71,#64),#236,.T.);
#248=ADVANCED_FACE('',(#72),#60,.F.);
#249=ADVANCED_FACE('',(#73),#61,.F.);
#250=ADVANCED_FACE('',(#74),#237,.T.);
#251=ADVANCED_FACE('',(#75),#238,.T.);
#252=ADVANCED_FACE('',(#76,#65),#239,.T.);
#253=ADVANCED_FACE('',(#77,#66),#240,.T.);
#254=ADVANCED_FACE('',(#78),#241,.T.);
#255=ADVANCED_FACE('',(#79),#242,.F.);
#256=CLOSED_SHELL('',(#243,#244,#245,#246,#247,#248,#249,#250,#251,#252,
#253,#254,#255));
#257=DERIVED_UNIT_ELEMENT(#259,1.);
#258=DERIVED_UNIT_ELEMENT(#458,3.);
#259=(
MASS_UNIT()
NAMED_UNIT(*)
SI_UNIT($,.GRAM.)
);
#260=DERIVED_UNIT((#257,#258));
#261=MEASURE_REPRESENTATION_ITEM('density measure',
POSITIVE_RATIO_MEASURE(2.71),#260);
#262=PROPERTY_DEFINITION_REPRESENTATION(#267,#264);
#263=PROPERTY_DEFINITION_REPRESENTATION(#268,#265);
#264=REPRESENTATION('material name',(#266),#455);
#265=REPRESENTATION('density',(#261),#455);
#266=DESCRIPTIVE_REPRESENTATION_ITEM('Hlin\X\EDk - 6061',
'Hlin\X\EDk - 6061');
#267=PROPERTY_DEFINITION('material property','material name',#465);
#268=PROPERTY_DEFINITION('material property','density of part',#465);
#269=DATE_TIME_ROLE('creation_date');
#270=CC_DESIGN_DATE_AND_TIME_ASSIGNMENT(#271,#269,(#465));
#271=DATE_AND_TIME(#272,#273);
#272=CALENDAR_DATE(2014,3,1);
#273=LOCAL_TIME(0,0,0.,#274);
#274=COORDINATED_UNIVERSAL_TIME_OFFSET(0,0,.BEHIND.);
#275=AXIS2_PLACEMENT_3D('placement',#381,#304,#305);
#276=AXIS2_PLACEMENT_3D('',#382,#306,#307);
#277=AXIS2_PLACEMENT_3D('',#385,#308,#309);
#278=AXIS2_PLACEMENT_3D('',#386,#310,#311);
#279=AXIS2_PLACEMENT_3D('',#388,#312,#313);
#280=AXIS2_PLACEMENT_3D('',#389,#314,#315);
#281=AXIS2_PLACEMENT_3D('',#392,#316,#317);
#282=AXIS2_PLACEMENT_3D('',#394,#318,#319);
#283=AXIS2_PLACEMENT_3D('',#397,#321,#322);
#284=AXIS2_PLACEMENT_3D('',#398,#323,#324);
#285=AXIS2_PLACEMENT_3D('',#399,#325,#326);
#286=AXIS2_PLACEMENT_3D('',#403,#328,#329);
#287=AXIS2_PLACEMENT_3D('',#404,#330,#331);
#288=AXIS2_PLACEMENT_3D('',#405,#332,#333);
#289=AXIS2_PLACEMENT_3D('',#414,#338,#339);
#290=AXIS2_PLACEMENT_3D('',#415,#340,#341);
#291=AXIS2_PLACEMENT_3D('',#418,#342,#343);
#292=AXIS2_PLACEMENT_3D('',#419,#344,#345);
#293=AXIS2_PLACEMENT_3D('',#421,#346,#347);
#294=AXIS2_PLACEMENT_3D('',#422,#348,#349);
#295=AXIS2_PLACEMENT_3D('',#424,#351,#352);
#296=AXIS2_PLACEMENT_3D('',#428,#354,#355);
#297=AXIS2_PLACEMENT_3D('',#429,#356,#357);
#298=AXIS2_PLACEMENT_3D('',#430,#358,#359);
#299=AXIS2_PLACEMENT_3D('',#436,#363,#364);
#300=AXIS2_PLACEMENT_3D('',#442,#368,#369);
#301=AXIS2_PLACEMENT_3D('',#448,#373,#374);
#302=AXIS2_PLACEMENT_3D('',#451,#377,#378);
#303=AXIS2_PLACEMENT_3D('',#452,#379,#380);
#304=DIRECTION('axis',(0.,0.,1.));
#305=DIRECTION('refdir',(1.,0.,0.));
#306=DIRECTION('center_axis',(0.,1.,0.));
#307=DIRECTION('ref_axis',(-1.,0.,0.));
#308=DIRECTION('center_axis',(0.,1.,0.));
#309=DIRECTION('ref_axis',(-1.,0.,0.));
#310=DIRECTION('center_axis',(0.,1.,0.));
#311=DIRECTION('ref_axis',(-1.,0.,0.));
#312=DIRECTION('center_axis',(0.,1.,0.));
#313=DIRECTION('ref_axis',(-1.,0.,0.));
#314=DIRECTION('center_axis',(0.,1.,0.));
#315=DIRECTION('ref_axis',(-1.,0.,0.));
#316=DIRECTION('center_axis',(0.707106781186548,-0.707106781186548,0.));
#317=DIRECTION('ref_axis',(-0.707106781186548,-0.707106781186548,0.));
#318=DIRECTION('center_axis',(-0.707106781186547,-0.707106781186548,0.));
#319=DIRECTION('ref_axis',(-0.707106781186548,0.707106781186547,0.));
#320=DIRECTION('',(0.,-1.,0.));
#321=DIRECTION('center_axis',(-0.707106781186547,-0.707106781186548,0.));
#322=DIRECTION('ref_axis',(-0.707106781186548,0.707106781186547,0.));
#323=DIRECTION('center_axis',(0.707106781186548,-0.707106781186548,0.));
#324=DIRECTION('ref_axis',(-0.707106781186548,-0.707106781186548,0.));
#325=DIRECTION('center_axis',(0.,1.,0.));
#326=DIRECTION('ref_axis',(-1.,0.,0.));
#327=DIRECTION('',(0.,-1.,0.));
#328=DIRECTION('center_axis',(-1.83697019872103E-16,1.,0.));
#329=DIRECTION('ref_axis',(-1.,0.,0.));
#330=DIRECTION('center_axis',(-1.83697019872103E-16,1.,0.));
#331=DIRECTION('ref_axis',(-1.,0.,0.));
#332=DIRECTION('center_axis',(0.707106781186547,0.707106781186548,0.));
#333=DIRECTION('ref_axis',(0.,0.,-1.));
#334=DIRECTION('',(0.707106781186548,-0.707106781186547,0.));
#335=DIRECTION('',(0.,0.,1.));
#336=DIRECTION('',(0.707106781186548,-0.707106781186547,0.));
#337=DIRECTION('',(0.,0.,1.));
#338=DIRECTION('center_axis',(-0.707106781186547,-0.707106781186548,0.));
#339=DIRECTION('ref_axis',(-0.707106781186548,0.707106781186547,0.));
#340=DIRECTION('center_axis',(1.,0.,0.));
#341=DIRECTION('ref_axis',(0.,1.,0.));
#342=DIRECTION('center_axis',(1.,0.,0.));
#343=DIRECTION('ref_axis',(0.,1.,0.));
#344=DIRECTION('center_axis',(1.,0.,0.));
#345=DIRECTION('ref_axis',(0.,1.,0.));
#346=DIRECTION('center_axis',(1.,0.,0.));
#347=DIRECTION('ref_axis',(0.,1.,0.));
#348=DIRECTION('center_axis',(1.,0.,0.));
#349=DIRECTION('ref_axis',(0.,1.,0.));
#350=DIRECTION('',(-1.,0.,0.));
#351=DIRECTION('center_axis',(1.,0.,0.));
#352=DIRECTION('ref_axis',(0.,1.,0.));
#353=DIRECTION('',(-1.,0.,0.));
#354=DIRECTION('center_axis',(1.,-3.44782399010176E-34,0.));
#355=DIRECTION('ref_axis',(0.,1.,0.));
#356=DIRECTION('center_axis',(1.,-3.44782399010176E-34,0.));
#357=DIRECTION('ref_axis',(0.,1.,0.));
#358=DIRECTION('center_axis',(0.,1.,0.));
#359=DIRECTION('ref_axis',(0.,0.,1.));
#360=DIRECTION('',(1.,0.,0.));
#361=DIRECTION('',(1.,0.,0.));
#362=DIRECTION('',(0.,0.,1.));
#363=DIRECTION('center_axis',(1.,0.,0.));
#364=DIRECTION('ref_axis',(0.,0.,-1.));
#365=DIRECTION('',(0.,-1.,0.));
#366=DIRECTION('',(0.,0.,1.));
#367=DIRECTION('',(0.,-1.,0.));
#368=DIRECTION('center_axis',(1.83697019872103E-16,-1.,0.));
#369=DIRECTION('ref_axis',(0.,0.,-1.));
#370=DIRECTION('',(-1.,-1.83697019872103E-16,0.));
#371=DIRECTION('',(0.,0.,1.));
#372=DIRECTION('',(-1.,-1.83697019872103E-16,0.));
#373=DIRECTION('center_axis',(-1.,3.44782399010176E-34,0.));
#374=DIRECTION('ref_axis',(0.,0.,1.));
#375=DIRECTION('',(3.44782399010176E-34,1.,0.));
#376=DIRECTION('',(3.44782399010176E-34,1.,0.));
#377=DIRECTION('center_axis',(0.,0.,1.));
#378=DIRECTION('ref_axis',(1.,0.,0.));
#379=DIRECTION('center_axis',(0.,0.,1.));
#380=DIRECTION('ref_axis',(1.,0.,0.));
#381=CARTESIAN_POINT('',(0.,0.,0.));
#382=CARTESIAN_POINT('Origin',(15.,3.,6.));
#383=CARTESIAN_POINT('',(10.5,3.,6.));
#384=CARTESIAN_POINT('',(19.5,3.,6.));
#385=CARTESIAN_POINT('Origin',(15.,3.,6.));
#386=CARTESIAN_POINT('Origin',(15.,3.,6.));
#387=CARTESIAN_POINT('',(17.7,3.,6.));
#388=CARTESIAN_POINT('Origin',(15.,3.,6.));
#389=CARTESIAN_POINT('Origin',(15.,14.,6.));
#390=CARTESIAN_POINT('',(14.5,14.5,10.4721359549996));
#391=CARTESIAN_POINT('',(10.5,10.5,6.));
#392=CARTESIAN_POINT('Origin',(15.,15.,6.));
#393=CARTESIAN_POINT('',(19.5,9.5,6.));
#394=CARTESIAN_POINT('Origin',(15.,14.,6.));
#395=CARTESIAN_POINT('',(19.5,14.,6.));
#396=CARTESIAN_POINT('',(14.5,14.5,1.52786404500042));
#397=CARTESIAN_POINT('Origin',(15.,14.,6.));
#398=CARTESIAN_POINT('Origin',(15.,15.,6.));
#399=CARTESIAN_POINT('Origin',(15.,12.5,6.));
#400=CARTESIAN_POINT('',(17.7,4.44089209850063E-15,6.));
#401=CARTESIAN_POINT('',(17.7,12.5,6.));
#402=CARTESIAN_POINT('',(12.3,0.,6.));
#403=CARTESIAN_POINT('Origin',(15.,4.44089209850063E-15,6.));
#404=CARTESIAN_POINT('Origin',(15.,4.44089209850063E-15,6.));
#405=CARTESIAN_POINT('Origin',(3.99999999999999,25.,0.));
#406=CARTESIAN_POINT('',(3.99999999999999,25.,12.));
#407=CARTESIAN_POINT('',(25.,4.,12.));
#408=CARTESIAN_POINT('',(3.99999999999999,25.,12.));
#409=CARTESIAN_POINT('',(25.,4.,0.));
#410=CARTESIAN_POINT('',(25.,4.,0.));
#411=CARTESIAN_POINT('',(3.99999999999999,25.,0.));
#412=CARTESIAN_POINT('',(3.99999999999999,25.,0.));
#413=CARTESIAN_POINT('',(3.99999999999999,25.,0.));
#414=CARTESIAN_POINT('Origin',(14.,15.,6.));
#415=CARTESIAN_POINT('Origin',(3.,15.,6.));
#416=CARTESIAN_POINT('',(3.,19.5,6.));
#417=CARTESIAN_POINT('',(3.,10.5,6.));
#418=CARTESIAN_POINT('Origin',(3.,15.,6.));
#419=CARTESIAN_POINT('Origin',(3.,15.,6.));
#420=CARTESIAN_POINT('',(3.,12.3,6.));
#421=CARTESIAN_POINT('Origin',(3.,15.,6.));
#422=CARTESIAN_POINT('Origin',(14.,15.,6.));
#423=CARTESIAN_POINT('',(14.,10.5,6.));
#424=CARTESIAN_POINT('Origin',(12.5,15.,6.));
#425=CARTESIAN_POINT('',(-2.22044604925031E-15,12.3,6.));
#426=CARTESIAN_POINT('',(12.5,12.3,6.));
#427=CARTESIAN_POINT('',(0.,17.7,6.));
#428=CARTESIAN_POINT('Origin',(0.,15.,6.));
#429=CARTESIAN_POINT('Origin',(0.,15.,6.));
#430=CARTESIAN_POINT('Origin',(8.61955997525441E-33,25.,0.));
#431=CARTESIAN_POINT('',(8.61955997525441E-33,25.,12.));
#432=CARTESIAN_POINT('',(8.61955997525441E-33,25.,12.));
#433=CARTESIAN_POINT('',(8.61955997525441E-33,25.,0.));
#434=CARTESIAN_POINT('',(8.61955997525441E-33,25.,0.));
#435=CARTESIAN_POINT('',(8.61955997525441E-33,25.,0.));
#436=CARTESIAN_POINT('Origin',(25.,4.,0.));
#437=CARTESIAN_POINT('',(25.,4.59242549680257E-15,12.));
#438=CARTESIAN_POINT('',(25.,4.,12.));
#439=CARTESIAN_POINT('',(25.,4.59242549680257E-15,0.));
#440=CARTESIAN_POINT('',(25.,4.59242549680257E-15,0.));
#441=CARTESIAN_POINT('',(25.,4.,0.));
#442=CARTESIAN_POINT('Origin',(25.,4.59242549680257E-15,0.));
#443=CARTESIAN_POINT('',(0.,0.,12.));
#444=CARTESIAN_POINT('',(25.,4.59242549680257E-15,12.));
#445=CARTESIAN_POINT('',(0.,0.,0.));
#446=CARTESIAN_POINT('',(0.,0.,0.));
#447=CARTESIAN_POINT('',(25.,4.59242549680257E-15,0.));
#448=CARTESIAN_POINT('Origin',(0.,0.,0.));
#449=CARTESIAN_POINT('',(0.,0.,12.));
#450=CARTESIAN_POINT('',(0.,0.,0.));
#451=CARTESIAN_POINT('Origin',(9.70516231367269,9.70516231367269,12.));
#452=CARTESIAN_POINT('Origin',(9.70516231367269,9.70516231367269,0.));
#453=UNCERTAINTY_MEASURE_WITH_UNIT(LENGTH_MEASURE(0.01),#457,
'DISTANCE_ACCURACY_VALUE',
'Maximum model space distance between geometric entities at asserted c
onnectivities');
#454=UNCERTAINTY_MEASURE_WITH_UNIT(LENGTH_MEASURE(0.01),#457,
'DISTANCE_ACCURACY_VALUE',
'Maximum model space distance between geometric entities at asserted c
onnectivities');
#455=(
GEOMETRIC_REPRESENTATION_CONTEXT(3)
GLOBAL_UNCERTAINTY_ASSIGNED_CONTEXT((#453))
GLOBAL_UNIT_ASSIGNED_CONTEXT((#457,#459,#460))
REPRESENTATION_CONTEXT('','3D')
);
#456=(
GEOMETRIC_REPRESENTATION_CONTEXT(3)
GLOBAL_UNCERTAINTY_ASSIGNED_CONTEXT((#454))
GLOBAL_UNIT_ASSIGNED_CONTEXT((#457,#459,#460))
REPRESENTATION_CONTEXT('','3D')
);
#457=(
LENGTH_UNIT()
NAMED_UNIT(*)
SI_UNIT(.MILLI.,.METRE.)
);
#458=(
LENGTH_UNIT()
NAMED_UNIT(*)
SI_UNIT(.CENTI.,.METRE.)
);
#459=(
NAMED_UNIT(*)
PLANE_ANGLE_UNIT()
SI_UNIT($,.RADIAN.)
);
#460=(
NAMED_UNIT(*)
SI_UNIT($,.STERADIAN.)
SOLID_ANGLE_UNIT()
);
#461=SHAPE_DEFINITION_REPRESENTATION(#462,#463);
#462=PRODUCT_DEFINITION_SHAPE('',$,#465);
#463=SHAPE_REPRESENTATION('',(#275),#455);
#464=DESIGN_CONTEXT('part definition',#469,'design');
#465=PRODUCT_DEFINITION('301225','301225',#466,#464);
#466=PRODUCT_DEFINITION_FORMATION('',$,#471);
#467=PRODUCT_RELATED_PRODUCT_CATEGORY('301225','301225',(#471));
#468=APPLICATION_PROTOCOL_DEFINITION('international standard',
'ap203_configuration_controlled_3d_design_of_mechanical_parts_and_asse
mblies_mim_lf',2004,#469);
#469=APPLICATION_CONTEXT(
'Configuration Controlled 3D Design of Mechanical Parts and Assemblies');
#470=MECHANICAL_CONTEXT('part definition',#469,'mechanical');
#471=PRODUCT('301225','301225','K\X2\0105\X0\townik usztywniaj\X2\0105\X0\c
y 12x25',(#470));
#472=PRESENTATION_STYLE_ASSIGNMENT((#473));
#473=SURFACE_STYLE_USAGE(.BOTH.,#476);
#474=SURFACE_STYLE_RENDERING_WITH_PROPERTIES($,#480,(#475));
#475=SURFACE_STYLE_TRANSPARENT(0.);
#476=SURFACE_SIDE_STYLE('',(#477,#474));
#477=SURFACE_STYLE_FILL_AREA(#478);
#478=FILL_AREA_STYLE('',(#479));
#479=FILL_AREA_STYLE_COLOUR('',#480);
#480=COLOUR_RGB('',0.811764705882353,0.8,0.823529411764706);
ENDSEC;
END-ISO-10303-21;
