ISO-10303-21;
HEADER;
/* Generated by software containing ST-Developer
 * from STEP Tools, Inc. (www.steptools.com) 
 */

FILE_DESCRIPTION(
/* description */ (''),
/* implementation_level */ '2;1');

FILE_NAME(
/* name */ 
'W:\\_BIG DATA\\STP IGS\\Akcesoria\\Elementy za\X2\015B\X0\lepiaj\X2\0105\X0\c
e\\STP\\230837.stp',
/* time_stamp */ '2022-10-03T07:50:21+02:00',
/* author */ ('aluteckkpl_am'),
/* organization */ (''),
/* preprocessor_version */ 'ST-DEVELOPER v18.1',
/* originating_system */ 'Autodesk Inventor 2021',
/* authorisation */ '');

FILE_SCHEMA (('CONFIG_CONTROL_DESIGN'));
ENDSEC;

DATA;
#10=MECHANICAL_DESIGN_GEOMETRIC_PRESENTATION_REPRESENTATION('',(#13),#465);
#11=SHAPE_REPRESENTATION_RELATIONSHIP('SRR','None',#472,#12);
#12=ADVANCED_BREP_SHAPE_REPRESENTATION('',(#14),#464);
#13=STYLED_ITEM('',(#481),#14);
#14=MANIFOLD_SOLID_BREP('T\X2\011B\X0\leso1',#263);
#15=PLANE('',#289);
#16=PLANE('',#290);
#17=PLANE('',#291);
#18=PLANE('',#292);
#19=PLANE('',#293);
#20=PLANE('',#303);
#21=PLANE('',#307);
#22=PLANE('',#308);
#23=FACE_OUTER_BOUND('',#37,.T.);
#24=FACE_OUTER_BOUND('',#38,.T.);
#25=FACE_OUTER_BOUND('',#39,.T.);
#26=FACE_OUTER_BOUND('',#40,.T.);
#27=FACE_OUTER_BOUND('',#41,.T.);
#28=FACE_OUTER_BOUND('',#42,.T.);
#29=FACE_OUTER_BOUND('',#43,.T.);
#30=FACE_OUTER_BOUND('',#44,.T.);
#31=FACE_OUTER_BOUND('',#45,.T.);
#32=FACE_OUTER_BOUND('',#46,.T.);
#33=FACE_OUTER_BOUND('',#47,.T.);
#34=FACE_OUTER_BOUND('',#48,.T.);
#35=FACE_OUTER_BOUND('',#49,.T.);
#36=FACE_OUTER_BOUND('',#50,.T.);
#37=EDGE_LOOP('',(#171,#172,#173,#174));
#38=EDGE_LOOP('',(#175,#176,#177,#178));
#39=EDGE_LOOP('',(#179,#180,#181,#182));
#40=EDGE_LOOP('',(#183,#184,#185,#186));
#41=EDGE_LOOP('',(#187,#188,#189,#190));
#42=EDGE_LOOP('',(#191,#192,#193,#194));
#43=EDGE_LOOP('',(#195,#196,#197,#198));
#44=EDGE_LOOP('',(#199,#200,#201,#202));
#45=EDGE_LOOP('',(#203,#204,#205,#206));
#46=EDGE_LOOP('',(#207,#208,#209,#210));
#47=EDGE_LOOP('',(#211,#212,#213,#214));
#48=EDGE_LOOP('',(#215,#216,#217,#218));
#49=EDGE_LOOP('',(#219,#220,#221,#222,#223,#224,#225,#226,#227,#228,#229,
#230));
#50=EDGE_LOOP('',(#231,#232,#233,#234,#235,#236,#237,#238,#239,#240,#241,
#242));
#51=LINE('',#393,#75);
#52=LINE('',#396,#76);
#53=LINE('',#401,#77);
#54=LINE('',#405,#78);
#55=LINE('',#407,#79);
#56=LINE('',#408,#80);
#57=LINE('',#411,#81);
#58=LINE('',#413,#82);
#59=LINE('',#414,#83);
#60=LINE('',#417,#84);
#61=LINE('',#419,#85);
#62=LINE('',#420,#86);
#63=LINE('',#423,#87);
#64=LINE('',#425,#88);
#65=LINE('',#426,#89);
#66=LINE('',#429,#90);
#67=LINE('',#431,#91);
#68=LINE('',#432,#92);
#69=LINE('',#437,#93);
#70=LINE('',#443,#94);
#71=LINE('',#449,#95);
#72=LINE('',#453,#96);
#73=LINE('',#455,#97);
#74=LINE('',#456,#98);
#75=VECTOR('',#315,10.);
#76=VECTOR('',#318,10.);
#77=VECTOR('',#323,10.);
#78=VECTOR('',#328,10.);
#79=VECTOR('',#329,10.);
#80=VECTOR('',#330,10.);
#81=VECTOR('',#333,10.);
#82=VECTOR('',#334,10.);
#83=VECTOR('',#335,10.);
#84=VECTOR('',#338,10.);
#85=VECTOR('',#339,10.);
#86=VECTOR('',#340,10.);
#87=VECTOR('',#343,10.);
#88=VECTOR('',#344,10.);
#89=VECTOR('',#345,10.);
#90=VECTOR('',#348,10.);
#91=VECTOR('',#349,10.);
#92=VECTOR('',#350,10.);
#93=VECTOR('',#355,10.);
#94=VECTOR('',#362,10.);
#95=VECTOR('',#369,10.);
#96=VECTOR('',#374,10.);
#97=VECTOR('',#375,10.);
#98=VECTOR('',#376,10.);
#99=CIRCLE('',#284,0.4);
#100=CIRCLE('',#285,0.4);
#101=CIRCLE('',#287,5.35);
#102=CIRCLE('',#288,5.35);
#103=CIRCLE('',#295,5.35);
#104=CIRCLE('',#296,5.35);
#105=CIRCLE('',#298,0.4);
#106=CIRCLE('',#299,0.4);
#107=CIRCLE('',#301,4.55);
#108=CIRCLE('',#302,4.55);
#109=CIRCLE('',#305,4.55);
#110=CIRCLE('',#306,4.55);
#111=VERTEX_POINT('',#389);
#112=VERTEX_POINT('',#390);
#113=VERTEX_POINT('',#392);
#114=VERTEX_POINT('',#394);
#115=VERTEX_POINT('',#398);
#116=VERTEX_POINT('',#400);
#117=VERTEX_POINT('',#404);
#118=VERTEX_POINT('',#406);
#119=VERTEX_POINT('',#410);
#120=VERTEX_POINT('',#412);
#121=VERTEX_POINT('',#416);
#122=VERTEX_POINT('',#418);
#123=VERTEX_POINT('',#422);
#124=VERTEX_POINT('',#424);
#125=VERTEX_POINT('',#428);
#126=VERTEX_POINT('',#430);
#127=VERTEX_POINT('',#434);
#128=VERTEX_POINT('',#436);
#129=VERTEX_POINT('',#440);
#130=VERTEX_POINT('',#442);
#131=VERTEX_POINT('',#446);
#132=VERTEX_POINT('',#448);
#133=VERTEX_POINT('',#452);
#134=VERTEX_POINT('',#454);
#135=EDGE_CURVE('',#111,#112,#99,.T.);
#136=EDGE_CURVE('',#113,#112,#51,.T.);
#137=EDGE_CURVE('',#114,#113,#100,.T.);
#138=EDGE_CURVE('',#114,#111,#52,.T.);
#139=EDGE_CURVE('',#112,#115,#101,.T.);
#140=EDGE_CURVE('',#116,#115,#53,.T.);
#141=EDGE_CURVE('',#113,#116,#102,.T.);
#142=EDGE_CURVE('',#115,#117,#54,.T.);
#143=EDGE_CURVE('',#118,#117,#55,.T.);
#144=EDGE_CURVE('',#116,#118,#56,.T.);
#145=EDGE_CURVE('',#117,#119,#57,.T.);
#146=EDGE_CURVE('',#120,#119,#58,.T.);
#147=EDGE_CURVE('',#118,#120,#59,.T.);
#148=EDGE_CURVE('',#119,#121,#60,.T.);
#149=EDGE_CURVE('',#122,#121,#61,.T.);
#150=EDGE_CURVE('',#120,#122,#62,.T.);
#151=EDGE_CURVE('',#121,#123,#63,.T.);
#152=EDGE_CURVE('',#124,#123,#64,.T.);
#153=EDGE_CURVE('',#122,#124,#65,.T.);
#154=EDGE_CURVE('',#123,#125,#66,.T.);
#155=EDGE_CURVE('',#126,#125,#67,.T.);
#156=EDGE_CURVE('',#124,#126,#68,.T.);
#157=EDGE_CURVE('',#125,#127,#103,.T.);
#158=EDGE_CURVE('',#128,#127,#69,.T.);
#159=EDGE_CURVE('',#126,#128,#104,.T.);
#160=EDGE_CURVE('',#127,#129,#105,.T.);
#161=EDGE_CURVE('',#130,#129,#70,.T.);
#162=EDGE_CURVE('',#128,#130,#106,.T.);
#163=EDGE_CURVE('',#129,#131,#107,.T.);
#164=EDGE_CURVE('',#132,#131,#71,.T.);
#165=EDGE_CURVE('',#130,#132,#108,.T.);
#166=EDGE_CURVE('',#131,#133,#72,.T.);
#167=EDGE_CURVE('',#134,#133,#73,.T.);
#168=EDGE_CURVE('',#132,#134,#74,.T.);
#169=EDGE_CURVE('',#133,#111,#109,.T.);
#170=EDGE_CURVE('',#134,#114,#110,.T.);
#171=ORIENTED_EDGE('',*,*,#135,.T.);
#172=ORIENTED_EDGE('',*,*,#136,.F.);
#173=ORIENTED_EDGE('',*,*,#137,.F.);
#174=ORIENTED_EDGE('',*,*,#138,.T.);
#175=ORIENTED_EDGE('',*,*,#139,.T.);
#176=ORIENTED_EDGE('',*,*,#140,.F.);
#177=ORIENTED_EDGE('',*,*,#141,.F.);
#178=ORIENTED_EDGE('',*,*,#136,.T.);
#179=ORIENTED_EDGE('',*,*,#142,.T.);
#180=ORIENTED_EDGE('',*,*,#143,.F.);
#181=ORIENTED_EDGE('',*,*,#144,.F.);
#182=ORIENTED_EDGE('',*,*,#140,.T.);
#183=ORIENTED_EDGE('',*,*,#145,.T.);
#184=ORIENTED_EDGE('',*,*,#146,.F.);
#185=ORIENTED_EDGE('',*,*,#147,.F.);
#186=ORIENTED_EDGE('',*,*,#143,.T.);
#187=ORIENTED_EDGE('',*,*,#148,.T.);
#188=ORIENTED_EDGE('',*,*,#149,.F.);
#189=ORIENTED_EDGE('',*,*,#150,.F.);
#190=ORIENTED_EDGE('',*,*,#146,.T.);
#191=ORIENTED_EDGE('',*,*,#151,.T.);
#192=ORIENTED_EDGE('',*,*,#152,.F.);
#193=ORIENTED_EDGE('',*,*,#153,.F.);
#194=ORIENTED_EDGE('',*,*,#149,.T.);
#195=ORIENTED_EDGE('',*,*,#154,.T.);
#196=ORIENTED_EDGE('',*,*,#155,.F.);
#197=ORIENTED_EDGE('',*,*,#156,.F.);
#198=ORIENTED_EDGE('',*,*,#152,.T.);
#199=ORIENTED_EDGE('',*,*,#157,.T.);
#200=ORIENTED_EDGE('',*,*,#158,.F.);
#201=ORIENTED_EDGE('',*,*,#159,.F.);
#202=ORIENTED_EDGE('',*,*,#155,.T.);
#203=ORIENTED_EDGE('',*,*,#160,.T.);
#204=ORIENTED_EDGE('',*,*,#161,.F.);
#205=ORIENTED_EDGE('',*,*,#162,.F.);
#206=ORIENTED_EDGE('',*,*,#158,.T.);
#207=ORIENTED_EDGE('',*,*,#163,.T.);
#208=ORIENTED_EDGE('',*,*,#164,.F.);
#209=ORIENTED_EDGE('',*,*,#165,.F.);
#210=ORIENTED_EDGE('',*,*,#161,.T.);
#211=ORIENTED_EDGE('',*,*,#166,.T.);
#212=ORIENTED_EDGE('',*,*,#167,.F.);
#213=ORIENTED_EDGE('',*,*,#168,.F.);
#214=ORIENTED_EDGE('',*,*,#164,.T.);
#215=ORIENTED_EDGE('',*,*,#169,.T.);
#216=ORIENTED_EDGE('',*,*,#138,.F.);
#217=ORIENTED_EDGE('',*,*,#170,.F.);
#218=ORIENTED_EDGE('',*,*,#167,.T.);
#219=ORIENTED_EDGE('',*,*,#154,.F.);
#220=ORIENTED_EDGE('',*,*,#151,.F.);
#221=ORIENTED_EDGE('',*,*,#148,.F.);
#222=ORIENTED_EDGE('',*,*,#145,.F.);
#223=ORIENTED_EDGE('',*,*,#142,.F.);
#224=ORIENTED_EDGE('',*,*,#139,.F.);
#225=ORIENTED_EDGE('',*,*,#135,.F.);
#226=ORIENTED_EDGE('',*,*,#169,.F.);
#227=ORIENTED_EDGE('',*,*,#166,.F.);
#228=ORIENTED_EDGE('',*,*,#163,.F.);
#229=ORIENTED_EDGE('',*,*,#160,.F.);
#230=ORIENTED_EDGE('',*,*,#157,.F.);
#231=ORIENTED_EDGE('',*,*,#156,.T.);
#232=ORIENTED_EDGE('',*,*,#159,.T.);
#233=ORIENTED_EDGE('',*,*,#162,.T.);
#234=ORIENTED_EDGE('',*,*,#165,.T.);
#235=ORIENTED_EDGE('',*,*,#168,.T.);
#236=ORIENTED_EDGE('',*,*,#170,.T.);
#237=ORIENTED_EDGE('',*,*,#137,.T.);
#238=ORIENTED_EDGE('',*,*,#141,.T.);
#239=ORIENTED_EDGE('',*,*,#144,.T.);
#240=ORIENTED_EDGE('',*,*,#147,.T.);
#241=ORIENTED_EDGE('',*,*,#150,.T.);
#242=ORIENTED_EDGE('',*,*,#153,.T.);
#243=CYLINDRICAL_SURFACE('',#283,0.4);
#244=CYLINDRICAL_SURFACE('',#286,5.35);
#245=CYLINDRICAL_SURFACE('',#294,5.35);
#246=CYLINDRICAL_SURFACE('',#297,0.4);
#247=CYLINDRICAL_SURFACE('',#300,4.55);
#248=CYLINDRICAL_SURFACE('',#304,4.55);
#249=ADVANCED_FACE('',(#23),#243,.T.);
#250=ADVANCED_FACE('',(#24),#244,.T.);
#251=ADVANCED_FACE('',(#25),#15,.T.);
#252=ADVANCED_FACE('',(#26),#16,.T.);
#253=ADVANCED_FACE('',(#27),#17,.T.);
#254=ADVANCED_FACE('',(#28),#18,.T.);
#255=ADVANCED_FACE('',(#29),#19,.T.);
#256=ADVANCED_FACE('',(#30),#245,.T.);
#257=ADVANCED_FACE('',(#31),#246,.T.);
#258=ADVANCED_FACE('',(#32),#247,.F.);
#259=ADVANCED_FACE('',(#33),#20,.T.);
#260=ADVANCED_FACE('',(#34),#248,.F.);
#261=ADVANCED_FACE('',(#35),#21,.T.);
#262=ADVANCED_FACE('',(#36),#22,.F.);
#263=CLOSED_SHELL('',(#249,#250,#251,#252,#253,#254,#255,#256,#257,#258,
#259,#260,#261,#262));
#264=DERIVED_UNIT_ELEMENT(#266,1.);
#265=DERIVED_UNIT_ELEMENT(#467,3.);
#266=(
MASS_UNIT()
NAMED_UNIT(*)
SI_UNIT($,.GRAM.)
);
#267=DERIVED_UNIT((#264,#265));
#268=MEASURE_REPRESENTATION_ITEM('density measure',
POSITIVE_RATIO_MEASURE(2.71),#267);
#269=PROPERTY_DEFINITION_REPRESENTATION(#274,#271);
#270=PROPERTY_DEFINITION_REPRESENTATION(#275,#272);
#271=REPRESENTATION('material name',(#273),#464);
#272=REPRESENTATION('density',(#268),#464);
#273=DESCRIPTIVE_REPRESENTATION_ITEM('Hlin\X\EDk - 6061',
'Hlin\X\EDk - 6061');
#274=PROPERTY_DEFINITION('material property','material name',#474);
#275=PROPERTY_DEFINITION('material property','density of part',#474);
#276=DATE_TIME_ROLE('creation_date');
#277=CC_DESIGN_DATE_AND_TIME_ASSIGNMENT(#278,#276,(#474));
#278=DATE_AND_TIME(#279,#280);
#279=CALENDAR_DATE(2021,10,6);
#280=LOCAL_TIME(0,0,0.,#281);
#281=COORDINATED_UNIVERSAL_TIME_OFFSET(0,0,.BEHIND.);
#282=AXIS2_PLACEMENT_3D('placement',#387,#309,#310);
#283=AXIS2_PLACEMENT_3D('',#388,#311,#312);
#284=AXIS2_PLACEMENT_3D('',#391,#313,#314);
#285=AXIS2_PLACEMENT_3D('',#395,#316,#317);
#286=AXIS2_PLACEMENT_3D('',#397,#319,#320);
#287=AXIS2_PLACEMENT_3D('',#399,#321,#322);
#288=AXIS2_PLACEMENT_3D('',#402,#324,#325);
#289=AXIS2_PLACEMENT_3D('',#403,#326,#327);
#290=AXIS2_PLACEMENT_3D('',#409,#331,#332);
#291=AXIS2_PLACEMENT_3D('',#415,#336,#337);
#292=AXIS2_PLACEMENT_3D('',#421,#341,#342);
#293=AXIS2_PLACEMENT_3D('',#427,#346,#347);
#294=AXIS2_PLACEMENT_3D('',#433,#351,#352);
#295=AXIS2_PLACEMENT_3D('',#435,#353,#354);
#296=AXIS2_PLACEMENT_3D('',#438,#356,#357);
#297=AXIS2_PLACEMENT_3D('',#439,#358,#359);
#298=AXIS2_PLACEMENT_3D('',#441,#360,#361);
#299=AXIS2_PLACEMENT_3D('',#444,#363,#364);
#300=AXIS2_PLACEMENT_3D('',#445,#365,#366);
#301=AXIS2_PLACEMENT_3D('',#447,#367,#368);
#302=AXIS2_PLACEMENT_3D('',#450,#370,#371);
#303=AXIS2_PLACEMENT_3D('',#451,#372,#373);
#304=AXIS2_PLACEMENT_3D('',#457,#377,#378);
#305=AXIS2_PLACEMENT_3D('',#458,#379,#380);
#306=AXIS2_PLACEMENT_3D('',#459,#381,#382);
#307=AXIS2_PLACEMENT_3D('',#460,#383,#384);
#308=AXIS2_PLACEMENT_3D('',#461,#385,#386);
#309=DIRECTION('axis',(0.,0.,1.));
#310=DIRECTION('refdir',(1.,0.,0.));
#311=DIRECTION('center_axis',(0.,0.,1.));
#312=DIRECTION('ref_axis',(-0.888888888888888,-0.458122847290853,0.));
#313=DIRECTION('center_axis',(0.,0.,-1.));
#314=DIRECTION('ref_axis',(-0.888888888888888,-0.458122847290853,0.));
#315=DIRECTION('',(0.,0.,1.));
#316=DIRECTION('center_axis',(0.,0.,-1.));
#317=DIRECTION('ref_axis',(-0.888888888888888,-0.458122847290853,0.));
#318=DIRECTION('',(0.,0.,1.));
#319=DIRECTION('center_axis',(0.,0.,1.));
#320=DIRECTION('ref_axis',(-0.875801538474906,0.482671384282296,0.));
#321=DIRECTION('center_axis',(0.,0.,-1.));
#322=DIRECTION('ref_axis',(-0.875801538474906,0.482671384282296,0.));
#323=DIRECTION('',(0.,0.,1.));
#324=DIRECTION('center_axis',(0.,0.,-1.));
#325=DIRECTION('ref_axis',(-0.875801538474906,0.482671384282296,0.));
#326=DIRECTION('center_axis',(1.15113222745259E-15,-1.,0.));
#327=DIRECTION('ref_axis',(0.,0.,-1.));
#328=DIRECTION('',(-1.,-1.15113222745259E-15,0.));
#329=DIRECTION('',(0.,0.,1.));
#330=DIRECTION('',(-1.,-1.15113222745259E-15,0.));
#331=DIRECTION('center_axis',(-1.,0.,0.));
#332=DIRECTION('ref_axis',(0.,0.,1.));
#333=DIRECTION('',(0.,1.,0.));
#334=DIRECTION('',(0.,0.,1.));
#335=DIRECTION('',(0.,1.,0.));
#336=DIRECTION('center_axis',(0.,1.,0.));
#337=DIRECTION('ref_axis',(0.,0.,1.));
#338=DIRECTION('',(1.,0.,0.));
#339=DIRECTION('',(0.,0.,1.));
#340=DIRECTION('',(1.,0.,0.));
#341=DIRECTION('center_axis',(1.,0.,0.));
#342=DIRECTION('ref_axis',(0.,0.,-1.));
#343=DIRECTION('',(0.,-1.,0.));
#344=DIRECTION('',(0.,0.,1.));
#345=DIRECTION('',(0.,-1.,0.));
#346=DIRECTION('center_axis',(-5.75566113726294E-16,-1.,0.));
#347=DIRECTION('ref_axis',(0.,0.,-1.));
#348=DIRECTION('',(-1.,5.75566113726294E-16,0.));
#349=DIRECTION('',(0.,0.,1.));
#350=DIRECTION('',(-1.,5.75566113726294E-16,0.));
#351=DIRECTION('center_axis',(0.,0.,1.));
#352=DIRECTION('ref_axis',(0.888888888888889,-0.458122847290852,0.));
#353=DIRECTION('center_axis',(0.,0.,-1.));
#354=DIRECTION('ref_axis',(0.888888888888889,-0.458122847290852,0.));
#355=DIRECTION('',(0.,0.,1.));
#356=DIRECTION('center_axis',(0.,0.,-1.));
#357=DIRECTION('ref_axis',(0.888888888888889,-0.458122847290852,0.));
#358=DIRECTION('center_axis',(0.,0.,1.));
#359=DIRECTION('ref_axis',(-0.88888888888889,0.45812284729085,0.));
#360=DIRECTION('center_axis',(0.,0.,-1.));
#361=DIRECTION('ref_axis',(-0.88888888888889,0.45812284729085,0.));
#362=DIRECTION('',(0.,0.,1.));
#363=DIRECTION('center_axis',(0.,0.,-1.));
#364=DIRECTION('ref_axis',(-0.88888888888889,0.45812284729085,0.));
#365=DIRECTION('center_axis',(0.,0.,1.));
#366=DIRECTION('ref_axis',(-0.888888888888889,0.458122847290852,0.));
#367=DIRECTION('center_axis',(0.,0.,1.));
#368=DIRECTION('ref_axis',(-0.888888888888889,0.458122847290852,0.));
#369=DIRECTION('',(0.,0.,1.));
#370=DIRECTION('center_axis',(0.,0.,1.));
#371=DIRECTION('ref_axis',(-0.888888888888889,0.458122847290852,0.));
#372=DIRECTION('center_axis',(0.,-1.,0.));
#373=DIRECTION('ref_axis',(0.,0.,-1.));
#374=DIRECTION('',(-1.,0.,0.));
#375=DIRECTION('',(0.,0.,1.));
#376=DIRECTION('',(-1.,0.,0.));
#377=DIRECTION('center_axis',(0.,0.,1.));
#378=DIRECTION('ref_axis',(0.823348112212179,-0.567536682617645,0.));
#379=DIRECTION('center_axis',(0.,0.,1.));
#380=DIRECTION('ref_axis',(0.823348112212179,-0.567536682617645,0.));
#381=DIRECTION('center_axis',(0.,0.,1.));
#382=DIRECTION('ref_axis',(0.823348112212179,-0.567536682617645,0.));
#383=DIRECTION('center_axis',(0.,0.,1.));
#384=DIRECTION('ref_axis',(1.,0.,0.));
#385=DIRECTION('center_axis',(0.,0.,1.));
#386=DIRECTION('ref_axis',(1.,0.,0.));
#387=CARTESIAN_POINT('',(0.,0.,0.));
#388=CARTESIAN_POINT('Origin',(-4.4,-6.2,0.));
#389=CARTESIAN_POINT('',(-4.04444444444444,-6.01675086108366,100.));
#390=CARTESIAN_POINT('',(-4.75555555555556,-6.38324913891634,100.));
#391=CARTESIAN_POINT('Origin',(-4.4,-6.2,100.));
#392=CARTESIAN_POINT('',(-4.75555555555556,-6.38324913891634,0.));
#393=CARTESIAN_POINT('',(-4.75555555555556,-6.38324913891634,0.));
#394=CARTESIAN_POINT('',(-4.04444444444444,-6.01675086108366,0.));
#395=CARTESIAN_POINT('Origin',(-4.4,-6.2,0.));
#396=CARTESIAN_POINT('',(-4.04444444444444,-6.01675086108366,0.));
#397=CARTESIAN_POINT('Origin',(4.81566869588608E-16,-3.93229190591029,0.));
#398=CARTESIAN_POINT('',(-4.68553823084075,-1.35,100.));
#399=CARTESIAN_POINT('Origin',(4.81566869588608E-16,-3.93229190591029,100.));
#400=CARTESIAN_POINT('',(-4.68553823084075,-1.35,0.));
#401=CARTESIAN_POINT('',(-4.68553823084075,-1.35,0.));
#402=CARTESIAN_POINT('Origin',(4.81566869588608E-16,-3.93229190591029,0.));
#403=CARTESIAN_POINT('Origin',(-4.68553823084075,-1.35,0.));
#404=CARTESIAN_POINT('',(-5.65,-1.35,100.));
#405=CARTESIAN_POINT('',(-2.34276911542037,-1.35,100.));
#406=CARTESIAN_POINT('',(-5.65,-1.35,0.));
#407=CARTESIAN_POINT('',(-5.65,-1.35,0.));
#408=CARTESIAN_POINT('',(-2.34276911542037,-1.35,0.));
#409=CARTESIAN_POINT('Origin',(-5.65,-1.35,0.));
#410=CARTESIAN_POINT('',(-5.65,-6.93889390390723E-16,100.));
#411=CARTESIAN_POINT('',(-5.65,-2.325,100.));
#412=CARTESIAN_POINT('',(-5.65,-6.93889390390723E-16,0.));
#413=CARTESIAN_POINT('',(-5.65,-6.93889390390723E-16,0.));
#414=CARTESIAN_POINT('',(-5.65,-2.325,0.));
#415=CARTESIAN_POINT('Origin',(-5.65,-6.93889390390723E-16,0.));
#416=CARTESIAN_POINT('',(5.65,-6.93889390390723E-16,100.));
#417=CARTESIAN_POINT('',(-2.825,-5.55111512312578E-16,100.));
#418=CARTESIAN_POINT('',(5.65,-6.93889390390723E-16,0.));
#419=CARTESIAN_POINT('',(5.65,-6.93889390390723E-16,0.));
#420=CARTESIAN_POINT('',(-2.825,-5.55111512312578E-16,0.));
#421=CARTESIAN_POINT('Origin',(5.65,-6.93889390390723E-16,0.));
#422=CARTESIAN_POINT('',(5.65,-1.35,100.));
#423=CARTESIAN_POINT('',(5.65,-1.65,100.));
#424=CARTESIAN_POINT('',(5.65,-1.35,0.));
#425=CARTESIAN_POINT('',(5.65,-1.35,0.));
#426=CARTESIAN_POINT('',(5.65,-1.65,0.));
#427=CARTESIAN_POINT('Origin',(5.65,-1.35,0.));
#428=CARTESIAN_POINT('',(4.68553823084075,-1.35,100.));
#429=CARTESIAN_POINT('',(2.825,-1.35,100.));
#430=CARTESIAN_POINT('',(4.68553823084075,-1.35,0.));
#431=CARTESIAN_POINT('',(4.68553823084075,-1.35,0.));
#432=CARTESIAN_POINT('',(2.825,-1.35,0.));
#433=CARTESIAN_POINT('Origin',(4.81566869588608E-16,-3.93229190591029,0.));
#434=CARTESIAN_POINT('',(4.75555555555556,-6.38324913891634,100.));
#435=CARTESIAN_POINT('Origin',(4.81566869588608E-16,-3.93229190591029,100.));
#436=CARTESIAN_POINT('',(4.75555555555556,-6.38324913891634,0.));
#437=CARTESIAN_POINT('',(4.75555555555556,-6.38324913891634,0.));
#438=CARTESIAN_POINT('Origin',(4.81566869588608E-16,-3.93229190591029,0.));
#439=CARTESIAN_POINT('Origin',(4.4,-6.2,0.));
#440=CARTESIAN_POINT('',(4.04444444444445,-6.01675086108366,100.));
#441=CARTESIAN_POINT('Origin',(4.4,-6.2,100.));
#442=CARTESIAN_POINT('',(4.04444444444445,-6.01675086108366,0.));
#443=CARTESIAN_POINT('',(4.04444444444445,-6.01675086108366,0.));
#444=CARTESIAN_POINT('Origin',(4.4,-6.2,0.));
#445=CARTESIAN_POINT('Origin',(4.81566869588608E-16,-3.93229190591029,0.));
#446=CARTESIAN_POINT('',(3.74623391056541,-1.35,100.));
#447=CARTESIAN_POINT('Origin',(4.81566869588608E-16,-3.93229190591029,100.));
#448=CARTESIAN_POINT('',(3.74623391056541,-1.35,0.));
#449=CARTESIAN_POINT('',(3.74623391056541,-1.35,0.));
#450=CARTESIAN_POINT('Origin',(4.81566869588608E-16,-3.93229190591029,0.));
#451=CARTESIAN_POINT('Origin',(3.74623391056541,-1.35,0.));
#452=CARTESIAN_POINT('',(-3.74623391056541,-1.35,100.));
#453=CARTESIAN_POINT('',(1.87311695528271,-1.35,100.));
#454=CARTESIAN_POINT('',(-3.74623391056541,-1.35,0.));
#455=CARTESIAN_POINT('',(-3.74623391056541,-1.35,0.));
#456=CARTESIAN_POINT('',(1.87311695528271,-1.35,0.));
#457=CARTESIAN_POINT('Origin',(4.81566869588608E-16,-3.93229190591029,0.));
#458=CARTESIAN_POINT('Origin',(4.81566869588608E-16,-3.93229190591029,100.));
#459=CARTESIAN_POINT('Origin',(4.81566869588608E-16,-3.93229190591029,0.));
#460=CARTESIAN_POINT('Origin',(0.,-3.3,100.));
#461=CARTESIAN_POINT('Origin',(0.,-3.3,0.));
#462=UNCERTAINTY_MEASURE_WITH_UNIT(LENGTH_MEASURE(0.01),#466,
'DISTANCE_ACCURACY_VALUE',
'Maximum model space distance between geometric entities at asserted c
onnectivities');
#463=UNCERTAINTY_MEASURE_WITH_UNIT(LENGTH_MEASURE(0.01),#466,
'DISTANCE_ACCURACY_VALUE',
'Maximum model space distance between geometric entities at asserted c
onnectivities');
#464=(
GEOMETRIC_REPRESENTATION_CONTEXT(3)
GLOBAL_UNCERTAINTY_ASSIGNED_CONTEXT((#462))
GLOBAL_UNIT_ASSIGNED_CONTEXT((#466,#468,#469))
REPRESENTATION_CONTEXT('','3D')
);
#465=(
GEOMETRIC_REPRESENTATION_CONTEXT(3)
GLOBAL_UNCERTAINTY_ASSIGNED_CONTEXT((#463))
GLOBAL_UNIT_ASSIGNED_CONTEXT((#466,#468,#469))
REPRESENTATION_CONTEXT('','3D')
);
#466=(
LENGTH_UNIT()
NAMED_UNIT(*)
SI_UNIT(.MILLI.,.METRE.)
);
#467=(
LENGTH_UNIT()
NAMED_UNIT(*)
SI_UNIT(.CENTI.,.METRE.)
);
#468=(
NAMED_UNIT(*)
PLANE_ANGLE_UNIT()
SI_UNIT($,.RADIAN.)
);
#469=(
NAMED_UNIT(*)
SI_UNIT($,.STERADIAN.)
SOLID_ANGLE_UNIT()
);
#470=SHAPE_DEFINITION_REPRESENTATION(#471,#472);
#471=PRODUCT_DEFINITION_SHAPE('',$,#474);
#472=SHAPE_REPRESENTATION('',(#282),#464);
#473=DESIGN_CONTEXT('part definition',#478,'design');
#474=PRODUCT_DEFINITION('230837-ZP','230837-ZP',#475,#473);
#475=PRODUCT_DEFINITION_FORMATION('',$,#480);
#476=PRODUCT_RELATED_PRODUCT_CATEGORY('230837-ZP','230837-ZP',(#480));
#477=APPLICATION_PROTOCOL_DEFINITION('international standard',
'ap203_configuration_controlled_3d_design_of_mechanical_parts_and_asse
mblies_mim_lf',2004,#478);
#478=APPLICATION_CONTEXT(
'Configuration Controlled 3D Design of Mechanical Parts and Assemblies');
#479=MECHANICAL_CONTEXT('part definition',#478,'mechanical');
#480=PRODUCT('230837-ZP','230837-ZP',$,(#479));
#481=PRESENTATION_STYLE_ASSIGNMENT((#482));
#482=SURFACE_STYLE_USAGE(.BOTH.,#485);
#483=SURFACE_STYLE_RENDERING_WITH_PROPERTIES($,#489,(#484));
#484=SURFACE_STYLE_TRANSPARENT(0.);
#485=SURFACE_SIDE_STYLE('',(#486,#483));
#486=SURFACE_STYLE_FILL_AREA(#487);
#487=FILL_AREA_STYLE('',(#488));
#488=FILL_AREA_STYLE_COLOUR('',#489);
#489=COLOUR_RGB('',0.811764705882353,0.8,0.823529411764706);
ENDSEC;
END-ISO-10303-21;
