ISO-10303-21;
HEADER;
/* Generated by software containing ST-Developer
 * from STEP Tools, Inc. (www.steptools.com) 
 */

FILE_DESCRIPTION(
/* description */ (''),
/* implementation_level */ '2;1');

FILE_NAME(
/* name */ 
'W:\\_BIG DATA\\STP IGS\\Akcesoria\\Elementy za\X2\015B\X0\lepiaj\X2\0105\X0\c
e\\STP\\230824.stp',
/* time_stamp */ '2022-10-03T08:03:55+02:00',
/* author */ ('aluteckkpl_am'),
/* organization */ (''),
/* preprocessor_version */ 'ST-DEVELOPER v18.1',
/* originating_system */ 'Autodesk Inventor 2021',
/* authorisation */ '');

FILE_SCHEMA (('CONFIG_CONTROL_DESIGN'));
ENDSEC;

DATA;
#10=MECHANICAL_DESIGN_GEOMETRIC_PRESENTATION_REPRESENTATION('',(#13),#527);
#11=SHAPE_REPRESENTATION_RELATIONSHIP('SRR','None',#534,#12);
#12=ADVANCED_BREP_SHAPE_REPRESENTATION('',(#14),#526);
#13=STYLED_ITEM('',(#543),#14);
#14=MANIFOLD_SOLID_BREP('T\X2\011B\X0\leso2',#309);
#15=CIRCLE('',#331,30.);
#16=CIRCLE('',#332,30.);
#17=CIRCLE('',#336,30.75);
#18=CIRCLE('',#337,30.75);
#19=CIRCLE('',#344,30.75);
#20=CIRCLE('',#345,30.75);
#21=CIRCLE('',#349,30.);
#22=CIRCLE('',#350,30.);
#23=CYLINDRICAL_SURFACE('',#330,30.);
#24=CYLINDRICAL_SURFACE('',#335,30.75);
#25=CYLINDRICAL_SURFACE('',#343,30.75);
#26=CYLINDRICAL_SURFACE('',#348,30.);
#27=FACE_OUTER_BOUND('',#43,.T.);
#28=FACE_OUTER_BOUND('',#44,.T.);
#29=FACE_OUTER_BOUND('',#45,.T.);
#30=FACE_OUTER_BOUND('',#46,.T.);
#31=FACE_OUTER_BOUND('',#47,.T.);
#32=FACE_OUTER_BOUND('',#48,.T.);
#33=FACE_OUTER_BOUND('',#49,.T.);
#34=FACE_OUTER_BOUND('',#50,.T.);
#35=FACE_OUTER_BOUND('',#51,.T.);
#36=FACE_OUTER_BOUND('',#52,.T.);
#37=FACE_OUTER_BOUND('',#53,.T.);
#38=FACE_OUTER_BOUND('',#54,.T.);
#39=FACE_OUTER_BOUND('',#55,.T.);
#40=FACE_OUTER_BOUND('',#56,.T.);
#41=FACE_OUTER_BOUND('',#57,.T.);
#42=FACE_OUTER_BOUND('',#58,.T.);
#43=EDGE_LOOP('',(#197,#198,#199,#200));
#44=EDGE_LOOP('',(#201,#202,#203,#204));
#45=EDGE_LOOP('',(#205,#206,#207,#208));
#46=EDGE_LOOP('',(#209,#210,#211,#212));
#47=EDGE_LOOP('',(#213,#214,#215,#216));
#48=EDGE_LOOP('',(#217,#218,#219,#220));
#49=EDGE_LOOP('',(#221,#222,#223,#224));
#50=EDGE_LOOP('',(#225,#226,#227,#228));
#51=EDGE_LOOP('',(#229,#230,#231,#232));
#52=EDGE_LOOP('',(#233,#234,#235,#236));
#53=EDGE_LOOP('',(#237,#238,#239,#240));
#54=EDGE_LOOP('',(#241,#242,#243,#244));
#55=EDGE_LOOP('',(#245,#246,#247,#248));
#56=EDGE_LOOP('',(#249,#250,#251,#252));
#57=EDGE_LOOP('',(#253,#254,#255,#256,#257,#258,#259,#260,#261,#262,#263,
#264,#265,#266));
#58=EDGE_LOOP('',(#267,#268,#269,#270,#271,#272,#273,#274,#275,#276,#277,
#278,#279,#280));
#59=LINE('',#441,#93);
#60=LINE('',#443,#94);
#61=LINE('',#445,#95);
#62=LINE('',#446,#96);
#63=LINE('',#451,#97);
#64=LINE('',#455,#98);
#65=LINE('',#457,#99);
#66=LINE('',#458,#100);
#67=LINE('',#461,#101);
#68=LINE('',#463,#102);
#69=LINE('',#464,#103);
#70=LINE('',#469,#104);
#71=LINE('',#473,#105);
#72=LINE('',#475,#106);
#73=LINE('',#476,#107);
#74=LINE('',#479,#108);
#75=LINE('',#481,#109);
#76=LINE('',#482,#110);
#77=LINE('',#485,#111);
#78=LINE('',#487,#112);
#79=LINE('',#488,#113);
#80=LINE('',#491,#114);
#81=LINE('',#493,#115);
#82=LINE('',#494,#116);
#83=LINE('',#497,#117);
#84=LINE('',#499,#118);
#85=LINE('',#500,#119);
#86=LINE('',#505,#120);
#87=LINE('',#509,#121);
#88=LINE('',#511,#122);
#89=LINE('',#512,#123);
#90=LINE('',#515,#124);
#91=LINE('',#517,#125);
#92=LINE('',#518,#126);
#93=VECTOR('',#357,10.);
#94=VECTOR('',#358,10.);
#95=VECTOR('',#359,10.);
#96=VECTOR('',#360,10.);
#97=VECTOR('',#365,10.);
#98=VECTOR('',#370,10.);
#99=VECTOR('',#371,10.);
#100=VECTOR('',#372,10.);
#101=VECTOR('',#375,10.);
#102=VECTOR('',#376,10.);
#103=VECTOR('',#377,10.);
#104=VECTOR('',#382,10.);
#105=VECTOR('',#387,10.);
#106=VECTOR('',#388,10.);
#107=VECTOR('',#389,10.);
#108=VECTOR('',#392,10.);
#109=VECTOR('',#393,10.);
#110=VECTOR('',#394,10.);
#111=VECTOR('',#397,10.);
#112=VECTOR('',#398,10.);
#113=VECTOR('',#399,10.);
#114=VECTOR('',#402,10.);
#115=VECTOR('',#403,10.);
#116=VECTOR('',#404,10.);
#117=VECTOR('',#407,10.);
#118=VECTOR('',#408,10.);
#119=VECTOR('',#409,10.);
#120=VECTOR('',#414,10.);
#121=VECTOR('',#419,10.);
#122=VECTOR('',#420,10.);
#123=VECTOR('',#421,10.);
#124=VECTOR('',#424,10.);
#125=VECTOR('',#425,10.);
#126=VECTOR('',#426,10.);
#127=VERTEX_POINT('',#439);
#128=VERTEX_POINT('',#440);
#129=VERTEX_POINT('',#442);
#130=VERTEX_POINT('',#444);
#131=VERTEX_POINT('',#448);
#132=VERTEX_POINT('',#450);
#133=VERTEX_POINT('',#454);
#134=VERTEX_POINT('',#456);
#135=VERTEX_POINT('',#460);
#136=VERTEX_POINT('',#462);
#137=VERTEX_POINT('',#466);
#138=VERTEX_POINT('',#468);
#139=VERTEX_POINT('',#472);
#140=VERTEX_POINT('',#474);
#141=VERTEX_POINT('',#478);
#142=VERTEX_POINT('',#480);
#143=VERTEX_POINT('',#484);
#144=VERTEX_POINT('',#486);
#145=VERTEX_POINT('',#490);
#146=VERTEX_POINT('',#492);
#147=VERTEX_POINT('',#496);
#148=VERTEX_POINT('',#498);
#149=VERTEX_POINT('',#502);
#150=VERTEX_POINT('',#504);
#151=VERTEX_POINT('',#508);
#152=VERTEX_POINT('',#510);
#153=VERTEX_POINT('',#514);
#154=VERTEX_POINT('',#516);
#155=EDGE_CURVE('',#127,#128,#59,.T.);
#156=EDGE_CURVE('',#129,#128,#60,.T.);
#157=EDGE_CURVE('',#130,#129,#61,.T.);
#158=EDGE_CURVE('',#130,#127,#62,.T.);
#159=EDGE_CURVE('',#128,#131,#15,.T.);
#160=EDGE_CURVE('',#132,#131,#63,.T.);
#161=EDGE_CURVE('',#129,#132,#16,.T.);
#162=EDGE_CURVE('',#131,#133,#64,.T.);
#163=EDGE_CURVE('',#134,#133,#65,.T.);
#164=EDGE_CURVE('',#132,#134,#66,.T.);
#165=EDGE_CURVE('',#133,#135,#67,.T.);
#166=EDGE_CURVE('',#136,#135,#68,.T.);
#167=EDGE_CURVE('',#134,#136,#69,.T.);
#168=EDGE_CURVE('',#135,#137,#17,.T.);
#169=EDGE_CURVE('',#138,#137,#70,.T.);
#170=EDGE_CURVE('',#136,#138,#18,.T.);
#171=EDGE_CURVE('',#137,#139,#71,.T.);
#172=EDGE_CURVE('',#140,#139,#72,.T.);
#173=EDGE_CURVE('',#138,#140,#73,.T.);
#174=EDGE_CURVE('',#139,#141,#74,.T.);
#175=EDGE_CURVE('',#142,#141,#75,.T.);
#176=EDGE_CURVE('',#140,#142,#76,.T.);
#177=EDGE_CURVE('',#141,#143,#77,.T.);
#178=EDGE_CURVE('',#144,#143,#78,.T.);
#179=EDGE_CURVE('',#142,#144,#79,.T.);
#180=EDGE_CURVE('',#143,#145,#80,.T.);
#181=EDGE_CURVE('',#146,#145,#81,.T.);
#182=EDGE_CURVE('',#144,#146,#82,.T.);
#183=EDGE_CURVE('',#145,#147,#83,.T.);
#184=EDGE_CURVE('',#148,#147,#84,.T.);
#185=EDGE_CURVE('',#146,#148,#85,.T.);
#186=EDGE_CURVE('',#147,#149,#19,.T.);
#187=EDGE_CURVE('',#150,#149,#86,.T.);
#188=EDGE_CURVE('',#148,#150,#20,.T.);
#189=EDGE_CURVE('',#149,#151,#87,.T.);
#190=EDGE_CURVE('',#152,#151,#88,.T.);
#191=EDGE_CURVE('',#150,#152,#89,.T.);
#192=EDGE_CURVE('',#151,#153,#90,.T.);
#193=EDGE_CURVE('',#154,#153,#91,.T.);
#194=EDGE_CURVE('',#152,#154,#92,.T.);
#195=EDGE_CURVE('',#153,#127,#21,.T.);
#196=EDGE_CURVE('',#154,#130,#22,.T.);
#197=ORIENTED_EDGE('',*,*,#155,.T.);
#198=ORIENTED_EDGE('',*,*,#156,.F.);
#199=ORIENTED_EDGE('',*,*,#157,.F.);
#200=ORIENTED_EDGE('',*,*,#158,.T.);
#201=ORIENTED_EDGE('',*,*,#159,.T.);
#202=ORIENTED_EDGE('',*,*,#160,.F.);
#203=ORIENTED_EDGE('',*,*,#161,.F.);
#204=ORIENTED_EDGE('',*,*,#156,.T.);
#205=ORIENTED_EDGE('',*,*,#162,.T.);
#206=ORIENTED_EDGE('',*,*,#163,.F.);
#207=ORIENTED_EDGE('',*,*,#164,.F.);
#208=ORIENTED_EDGE('',*,*,#160,.T.);
#209=ORIENTED_EDGE('',*,*,#165,.T.);
#210=ORIENTED_EDGE('',*,*,#166,.F.);
#211=ORIENTED_EDGE('',*,*,#167,.F.);
#212=ORIENTED_EDGE('',*,*,#163,.T.);
#213=ORIENTED_EDGE('',*,*,#168,.T.);
#214=ORIENTED_EDGE('',*,*,#169,.F.);
#215=ORIENTED_EDGE('',*,*,#170,.F.);
#216=ORIENTED_EDGE('',*,*,#166,.T.);
#217=ORIENTED_EDGE('',*,*,#171,.T.);
#218=ORIENTED_EDGE('',*,*,#172,.F.);
#219=ORIENTED_EDGE('',*,*,#173,.F.);
#220=ORIENTED_EDGE('',*,*,#169,.T.);
#221=ORIENTED_EDGE('',*,*,#174,.T.);
#222=ORIENTED_EDGE('',*,*,#175,.F.);
#223=ORIENTED_EDGE('',*,*,#176,.F.);
#224=ORIENTED_EDGE('',*,*,#172,.T.);
#225=ORIENTED_EDGE('',*,*,#177,.T.);
#226=ORIENTED_EDGE('',*,*,#178,.F.);
#227=ORIENTED_EDGE('',*,*,#179,.F.);
#228=ORIENTED_EDGE('',*,*,#175,.T.);
#229=ORIENTED_EDGE('',*,*,#180,.T.);
#230=ORIENTED_EDGE('',*,*,#181,.F.);
#231=ORIENTED_EDGE('',*,*,#182,.F.);
#232=ORIENTED_EDGE('',*,*,#178,.T.);
#233=ORIENTED_EDGE('',*,*,#183,.T.);
#234=ORIENTED_EDGE('',*,*,#184,.F.);
#235=ORIENTED_EDGE('',*,*,#185,.F.);
#236=ORIENTED_EDGE('',*,*,#181,.T.);
#237=ORIENTED_EDGE('',*,*,#186,.T.);
#238=ORIENTED_EDGE('',*,*,#187,.F.);
#239=ORIENTED_EDGE('',*,*,#188,.F.);
#240=ORIENTED_EDGE('',*,*,#184,.T.);
#241=ORIENTED_EDGE('',*,*,#189,.T.);
#242=ORIENTED_EDGE('',*,*,#190,.F.);
#243=ORIENTED_EDGE('',*,*,#191,.F.);
#244=ORIENTED_EDGE('',*,*,#187,.T.);
#245=ORIENTED_EDGE('',*,*,#192,.T.);
#246=ORIENTED_EDGE('',*,*,#193,.F.);
#247=ORIENTED_EDGE('',*,*,#194,.F.);
#248=ORIENTED_EDGE('',*,*,#190,.T.);
#249=ORIENTED_EDGE('',*,*,#195,.T.);
#250=ORIENTED_EDGE('',*,*,#158,.F.);
#251=ORIENTED_EDGE('',*,*,#196,.F.);
#252=ORIENTED_EDGE('',*,*,#193,.T.);
#253=ORIENTED_EDGE('',*,*,#177,.F.);
#254=ORIENTED_EDGE('',*,*,#174,.F.);
#255=ORIENTED_EDGE('',*,*,#171,.F.);
#256=ORIENTED_EDGE('',*,*,#168,.F.);
#257=ORIENTED_EDGE('',*,*,#165,.F.);
#258=ORIENTED_EDGE('',*,*,#162,.F.);
#259=ORIENTED_EDGE('',*,*,#159,.F.);
#260=ORIENTED_EDGE('',*,*,#155,.F.);
#261=ORIENTED_EDGE('',*,*,#195,.F.);
#262=ORIENTED_EDGE('',*,*,#192,.F.);
#263=ORIENTED_EDGE('',*,*,#189,.F.);
#264=ORIENTED_EDGE('',*,*,#186,.F.);
#265=ORIENTED_EDGE('',*,*,#183,.F.);
#266=ORIENTED_EDGE('',*,*,#180,.F.);
#267=ORIENTED_EDGE('',*,*,#179,.T.);
#268=ORIENTED_EDGE('',*,*,#182,.T.);
#269=ORIENTED_EDGE('',*,*,#185,.T.);
#270=ORIENTED_EDGE('',*,*,#188,.T.);
#271=ORIENTED_EDGE('',*,*,#191,.T.);
#272=ORIENTED_EDGE('',*,*,#194,.T.);
#273=ORIENTED_EDGE('',*,*,#196,.T.);
#274=ORIENTED_EDGE('',*,*,#157,.T.);
#275=ORIENTED_EDGE('',*,*,#161,.T.);
#276=ORIENTED_EDGE('',*,*,#164,.T.);
#277=ORIENTED_EDGE('',*,*,#167,.T.);
#278=ORIENTED_EDGE('',*,*,#170,.T.);
#279=ORIENTED_EDGE('',*,*,#173,.T.);
#280=ORIENTED_EDGE('',*,*,#176,.T.);
#281=PLANE('',#329);
#282=PLANE('',#333);
#283=PLANE('',#334);
#284=PLANE('',#338);
#285=PLANE('',#339);
#286=PLANE('',#340);
#287=PLANE('',#341);
#288=PLANE('',#342);
#289=PLANE('',#346);
#290=PLANE('',#347);
#291=PLANE('',#351);
#292=PLANE('',#352);
#293=ADVANCED_FACE('',(#27),#281,.T.);
#294=ADVANCED_FACE('',(#28),#23,.F.);
#295=ADVANCED_FACE('',(#29),#282,.T.);
#296=ADVANCED_FACE('',(#30),#283,.T.);
#297=ADVANCED_FACE('',(#31),#24,.T.);
#298=ADVANCED_FACE('',(#32),#284,.T.);
#299=ADVANCED_FACE('',(#33),#285,.T.);
#300=ADVANCED_FACE('',(#34),#286,.T.);
#301=ADVANCED_FACE('',(#35),#287,.T.);
#302=ADVANCED_FACE('',(#36),#288,.T.);
#303=ADVANCED_FACE('',(#37),#25,.T.);
#304=ADVANCED_FACE('',(#38),#289,.T.);
#305=ADVANCED_FACE('',(#39),#290,.T.);
#306=ADVANCED_FACE('',(#40),#26,.F.);
#307=ADVANCED_FACE('',(#41),#291,.T.);
#308=ADVANCED_FACE('',(#42),#292,.F.);
#309=CLOSED_SHELL('',(#293,#294,#295,#296,#297,#298,#299,#300,#301,#302,
#303,#304,#305,#306,#307,#308));
#310=DERIVED_UNIT_ELEMENT(#312,1.);
#311=DERIVED_UNIT_ELEMENT(#529,3.);
#312=(
MASS_UNIT()
NAMED_UNIT(*)
SI_UNIT($,.GRAM.)
);
#313=DERIVED_UNIT((#310,#311));
#314=MEASURE_REPRESENTATION_ITEM('density measure',
POSITIVE_RATIO_MEASURE(1.4),#313);
#315=PROPERTY_DEFINITION_REPRESENTATION(#320,#317);
#316=PROPERTY_DEFINITION_REPRESENTATION(#321,#318);
#317=REPRESENTATION('material name',(#319),#526);
#318=REPRESENTATION('density',(#314),#526);
#319=DESCRIPTIVE_REPRESENTATION_ITEM('PCW-U','PCW-U');
#320=PROPERTY_DEFINITION('material property','material name',#536);
#321=PROPERTY_DEFINITION('material property','density of part',#536);
#322=DATE_TIME_ROLE('creation_date');
#323=CC_DESIGN_DATE_AND_TIME_ASSIGNMENT(#324,#322,(#536));
#324=DATE_AND_TIME(#325,#326);
#325=CALENDAR_DATE(2021,6,8);
#326=LOCAL_TIME(0,0,0.,#327);
#327=COORDINATED_UNIVERSAL_TIME_OFFSET(0,0,.BEHIND.);
#328=AXIS2_PLACEMENT_3D('placement',#437,#353,#354);
#329=AXIS2_PLACEMENT_3D('',#438,#355,#356);
#330=AXIS2_PLACEMENT_3D('',#447,#361,#362);
#331=AXIS2_PLACEMENT_3D('',#449,#363,#364);
#332=AXIS2_PLACEMENT_3D('',#452,#366,#367);
#333=AXIS2_PLACEMENT_3D('',#453,#368,#369);
#334=AXIS2_PLACEMENT_3D('',#459,#373,#374);
#335=AXIS2_PLACEMENT_3D('',#465,#378,#379);
#336=AXIS2_PLACEMENT_3D('',#467,#380,#381);
#337=AXIS2_PLACEMENT_3D('',#470,#383,#384);
#338=AXIS2_PLACEMENT_3D('',#471,#385,#386);
#339=AXIS2_PLACEMENT_3D('',#477,#390,#391);
#340=AXIS2_PLACEMENT_3D('',#483,#395,#396);
#341=AXIS2_PLACEMENT_3D('',#489,#400,#401);
#342=AXIS2_PLACEMENT_3D('',#495,#405,#406);
#343=AXIS2_PLACEMENT_3D('',#501,#410,#411);
#344=AXIS2_PLACEMENT_3D('',#503,#412,#413);
#345=AXIS2_PLACEMENT_3D('',#506,#415,#416);
#346=AXIS2_PLACEMENT_3D('',#507,#417,#418);
#347=AXIS2_PLACEMENT_3D('',#513,#422,#423);
#348=AXIS2_PLACEMENT_3D('',#519,#427,#428);
#349=AXIS2_PLACEMENT_3D('',#520,#429,#430);
#350=AXIS2_PLACEMENT_3D('',#521,#431,#432);
#351=AXIS2_PLACEMENT_3D('',#522,#433,#434);
#352=AXIS2_PLACEMENT_3D('',#523,#435,#436);
#353=DIRECTION('axis',(0.,0.,1.));
#354=DIRECTION('refdir',(1.,0.,0.));
#355=DIRECTION('center_axis',(0.,-1.,0.));
#356=DIRECTION('ref_axis',(0.,0.,-1.));
#357=DIRECTION('',(-1.,0.,0.));
#358=DIRECTION('',(0.,0.,1.));
#359=DIRECTION('',(-1.,0.,0.));
#360=DIRECTION('',(0.,0.,1.));
#361=DIRECTION('center_axis',(0.,0.,1.));
#362=DIRECTION('ref_axis',(-0.997183533758957,0.0750000000000001,0.));
#363=DIRECTION('center_axis',(0.,0.,1.));
#364=DIRECTION('ref_axis',(-0.997183533758957,0.0750000000000001,0.));
#365=DIRECTION('',(0.,0.,1.));
#366=DIRECTION('center_axis',(0.,0.,1.));
#367=DIRECTION('ref_axis',(-0.997183533758957,0.0750000000000001,0.));
#368=DIRECTION('center_axis',(-0.730357788601171,-0.683064785089678,0.));
#369=DIRECTION('ref_axis',(0.,0.,1.));
#370=DIRECTION('',(-0.683064785089678,0.730357788601171,0.));
#371=DIRECTION('',(0.,0.,1.));
#372=DIRECTION('',(-0.683064785089678,0.730357788601171,0.));
#373=DIRECTION('center_axis',(0.,1.,0.));
#374=DIRECTION('ref_axis',(0.,0.,1.));
#375=DIRECTION('',(1.,0.,0.));
#376=DIRECTION('',(0.,0.,1.));
#377=DIRECTION('',(1.,0.,0.));
#378=DIRECTION('center_axis',(0.,0.,1.));
#379=DIRECTION('ref_axis',(0.997319429281018,-0.0731707317073172,0.));
#380=DIRECTION('center_axis',(0.,0.,-1.));
#381=DIRECTION('ref_axis',(0.997319429281018,-0.0731707317073172,0.));
#382=DIRECTION('',(0.,0.,1.));
#383=DIRECTION('center_axis',(0.,0.,-1.));
#384=DIRECTION('ref_axis',(0.997319429281018,-0.0731707317073172,0.));
#385=DIRECTION('center_axis',(0.,-1.,0.));
#386=DIRECTION('ref_axis',(0.,0.,-1.));
#387=DIRECTION('',(-1.,0.,0.));
#388=DIRECTION('',(0.,0.,1.));
#389=DIRECTION('',(-1.,0.,0.));
#390=DIRECTION('center_axis',(-1.,0.,0.));
#391=DIRECTION('ref_axis',(0.,0.,1.));
#392=DIRECTION('',(0.,1.,0.));
#393=DIRECTION('',(0.,0.,1.));
#394=DIRECTION('',(0.,1.,0.));
#395=DIRECTION('center_axis',(0.,1.,0.));
#396=DIRECTION('ref_axis',(0.,0.,1.));
#397=DIRECTION('',(1.,0.,0.));
#398=DIRECTION('',(0.,0.,1.));
#399=DIRECTION('',(1.,0.,0.));
#400=DIRECTION('center_axis',(1.,0.,0.));
#401=DIRECTION('ref_axis',(0.,0.,-1.));
#402=DIRECTION('',(0.,-1.,0.));
#403=DIRECTION('',(0.,0.,1.));
#404=DIRECTION('',(0.,-1.,0.));
#405=DIRECTION('center_axis',(0.,-1.,0.));
#406=DIRECTION('ref_axis',(0.,0.,-1.));
#407=DIRECTION('',(-1.,0.,0.));
#408=DIRECTION('',(0.,0.,1.));
#409=DIRECTION('',(-1.,0.,0.));
#410=DIRECTION('center_axis',(0.,0.,1.));
#411=DIRECTION('ref_axis',(-0.997319429281013,0.0731707317073847,0.));
#412=DIRECTION('center_axis',(0.,0.,-1.));
#413=DIRECTION('ref_axis',(-0.997319429281013,0.0731707317073847,0.));
#414=DIRECTION('',(0.,0.,1.));
#415=DIRECTION('center_axis',(0.,0.,-1.));
#416=DIRECTION('ref_axis',(-0.997319429281013,0.0731707317073847,0.));
#417=DIRECTION('center_axis',(0.,1.,0.));
#418=DIRECTION('ref_axis',(0.,0.,1.));
#419=DIRECTION('',(1.,0.,0.));
#420=DIRECTION('',(0.,0.,1.));
#421=DIRECTION('',(1.,0.,0.));
#422=DIRECTION('center_axis',(0.730357788601146,-0.683064785089704,0.));
#423=DIRECTION('ref_axis',(0.,0.,-1.));
#424=DIRECTION('',(-0.683064785089704,-0.730357788601146,0.));
#425=DIRECTION('',(0.,0.,1.));
#426=DIRECTION('',(-0.683064785089704,-0.730357788601146,0.));
#427=DIRECTION('center_axis',(0.,0.,1.));
#428=DIRECTION('ref_axis',(0.992156741649213,-0.125000000000069,0.));
#429=DIRECTION('center_axis',(0.,0.,1.));
#430=DIRECTION('ref_axis',(0.992156741649213,-0.125000000000069,0.));
#431=DIRECTION('center_axis',(0.,0.,1.));
#432=DIRECTION('ref_axis',(0.992156741649213,-0.125000000000069,0.));
#433=DIRECTION('center_axis',(0.,0.,1.));
#434=DIRECTION('ref_axis',(1.,0.,0.));
#435=DIRECTION('center_axis',(0.,0.,1.));
#436=DIRECTION('ref_axis',(1.,0.,0.));
#437=CARTESIAN_POINT('',(0.,0.,0.));
#438=CARTESIAN_POINT('Origin',(4.1655060127687,-1.5,0.));
#439=CARTESIAN_POINT('',(4.1655060127687,-1.5,100.));
#440=CARTESIAN_POINT('',(-4.1655060127687,-1.5,100.));
#441=CARTESIAN_POINT('',(2.08275300638435,-1.5,100.));
#442=CARTESIAN_POINT('',(-4.1655060127687,-1.5,0.));
#443=CARTESIAN_POINT('',(-4.1655060127687,-1.5,0.));
#444=CARTESIAN_POINT('',(4.1655060127687,-1.5,0.));
#445=CARTESIAN_POINT('',(2.08275300638435,-1.5,0.));
#446=CARTESIAN_POINT('',(4.1655060127687,-1.5,0.));
#447=CARTESIAN_POINT('Origin',(25.75,-3.75,0.));
#448=CARTESIAN_POINT('',(-4.01470224947664,-7.5,100.));
#449=CARTESIAN_POINT('Origin',(25.75,-3.75,100.));
#450=CARTESIAN_POINT('',(-4.01470224947664,-7.5,0.));
#451=CARTESIAN_POINT('',(-4.01470224947664,-7.5,0.));
#452=CARTESIAN_POINT('Origin',(25.75,-3.75,0.));
#453=CARTESIAN_POINT('Origin',(-4.01470224947664,-7.5,0.));
#454=CARTESIAN_POINT('',(-5.41757245039131,-6.,100.));
#455=CARTESIAN_POINT('',(-4.01352053989039,-7.50126352700216,100.));
#456=CARTESIAN_POINT('',(-5.41757245039131,-6.,0.));
#457=CARTESIAN_POINT('',(-5.41757245039131,-6.,0.));
#458=CARTESIAN_POINT('',(-4.01352053989039,-7.50126352700216,0.));
#459=CARTESIAN_POINT('Origin',(-5.41757245039131,-6.,0.));
#460=CARTESIAN_POINT('',(-4.91757245039131,-6.,100.));
#461=CARTESIAN_POINT('',(-2.70878622519565,-6.,100.));
#462=CARTESIAN_POINT('',(-4.91757245039131,-6.,0.));
#463=CARTESIAN_POINT('',(-4.91757245039131,-6.,0.));
#464=CARTESIAN_POINT('',(-2.70878622519565,-6.,0.));
#465=CARTESIAN_POINT('Origin',(25.75,-3.75,0.));
#466=CARTESIAN_POINT('',(-4.91757245039131,-1.5,100.));
#467=CARTESIAN_POINT('Origin',(25.75,-3.75,100.));
#468=CARTESIAN_POINT('',(-4.91757245039131,-1.5,0.));
#469=CARTESIAN_POINT('',(-4.91757245039131,-1.5,0.));
#470=CARTESIAN_POINT('Origin',(25.75,-3.75,0.));
#471=CARTESIAN_POINT('Origin',(-4.91757245039131,-1.5,0.));
#472=CARTESIAN_POINT('',(-5.8,-1.5,100.));
#473=CARTESIAN_POINT('',(-2.45878622519565,-1.5,100.));
#474=CARTESIAN_POINT('',(-5.8,-1.5,0.));
#475=CARTESIAN_POINT('',(-5.8,-1.5,0.));
#476=CARTESIAN_POINT('',(-2.45878622519565,-1.5,0.));
#477=CARTESIAN_POINT('Origin',(-5.8,-1.5,0.));
#478=CARTESIAN_POINT('',(-5.8,0.,100.));
#479=CARTESIAN_POINT('',(-5.8,-2.625,100.));
#480=CARTESIAN_POINT('',(-5.8,0.,0.));
#481=CARTESIAN_POINT('',(-5.8,0.,0.));
#482=CARTESIAN_POINT('',(-5.8,-2.625,0.));
#483=CARTESIAN_POINT('Origin',(-5.8,0.,0.));
#484=CARTESIAN_POINT('',(5.8,0.,100.));
#485=CARTESIAN_POINT('',(-2.9,0.,100.));
#486=CARTESIAN_POINT('',(5.8,0.,0.));
#487=CARTESIAN_POINT('',(5.8,0.,0.));
#488=CARTESIAN_POINT('',(-2.9,0.,0.));
#489=CARTESIAN_POINT('Origin',(5.8,0.,0.));
#490=CARTESIAN_POINT('',(5.8,-1.5,100.));
#491=CARTESIAN_POINT('',(5.8,-1.875,100.));
#492=CARTESIAN_POINT('',(5.8,-1.5,0.));
#493=CARTESIAN_POINT('',(5.8,-1.5,0.));
#494=CARTESIAN_POINT('',(5.8,-1.875,0.));
#495=CARTESIAN_POINT('Origin',(5.8,-1.5,0.));
#496=CARTESIAN_POINT('',(4.91757245039131,-1.5,100.));
#497=CARTESIAN_POINT('',(2.9,-1.5,100.));
#498=CARTESIAN_POINT('',(4.91757245039131,-1.5,0.));
#499=CARTESIAN_POINT('',(4.91757245039131,-1.5,0.));
#500=CARTESIAN_POINT('',(2.9,-1.5,0.));
#501=CARTESIAN_POINT('Origin',(-25.7500000000002,-3.74999999999792,0.));
#502=CARTESIAN_POINT('',(4.917572450391,-6.,100.));
#503=CARTESIAN_POINT('Origin',(-25.7500000000002,-3.74999999999792,100.));
#504=CARTESIAN_POINT('',(4.917572450391,-6.,0.));
#505=CARTESIAN_POINT('',(4.917572450391,-6.,0.));
#506=CARTESIAN_POINT('Origin',(-25.7500000000002,-3.74999999999792,0.));
#507=CARTESIAN_POINT('Origin',(4.917572450391,-6.,0.));
#508=CARTESIAN_POINT('',(5.417572450391,-6.,100.));
#509=CARTESIAN_POINT('',(2.4587862251955,-6.,100.));
#510=CARTESIAN_POINT('',(5.417572450391,-6.,0.));
#511=CARTESIAN_POINT('',(5.417572450391,-6.,0.));
#512=CARTESIAN_POINT('',(2.4587862251955,-6.,0.));
#513=CARTESIAN_POINT('Origin',(5.417572450391,-6.,0.));
#514=CARTESIAN_POINT('',(4.01470224947623,-7.5,100.));
#515=CARTESIAN_POINT('',(4.71495564034739,-6.75126352700213,100.));
#516=CARTESIAN_POINT('',(4.01470224947623,-7.5,0.));
#517=CARTESIAN_POINT('',(4.01470224947623,-7.5,0.));
#518=CARTESIAN_POINT('',(4.71495564034739,-6.75126352700213,0.));
#519=CARTESIAN_POINT('Origin',(-25.7500000000002,-3.74999999999792,0.));
#520=CARTESIAN_POINT('Origin',(-25.7500000000002,-3.74999999999792,100.));
#521=CARTESIAN_POINT('Origin',(-25.7500000000002,-3.74999999999792,0.));
#522=CARTESIAN_POINT('Origin',(0.,-3.75,100.));
#523=CARTESIAN_POINT('Origin',(0.,-3.75,0.));
#524=UNCERTAINTY_MEASURE_WITH_UNIT(LENGTH_MEASURE(0.01),#528,
'DISTANCE_ACCURACY_VALUE',
'Maximum model space distance between geometric entities at asserted c
onnectivities');
#525=UNCERTAINTY_MEASURE_WITH_UNIT(LENGTH_MEASURE(0.01),#528,
'DISTANCE_ACCURACY_VALUE',
'Maximum model space distance between geometric entities at asserted c
onnectivities');
#526=(
GEOMETRIC_REPRESENTATION_CONTEXT(3)
GLOBAL_UNCERTAINTY_ASSIGNED_CONTEXT((#524))
GLOBAL_UNIT_ASSIGNED_CONTEXT((#528,#530,#531))
REPRESENTATION_CONTEXT('','3D')
);
#527=(
GEOMETRIC_REPRESENTATION_CONTEXT(3)
GLOBAL_UNCERTAINTY_ASSIGNED_CONTEXT((#525))
GLOBAL_UNIT_ASSIGNED_CONTEXT((#528,#530,#531))
REPRESENTATION_CONTEXT('','3D')
);
#528=(
LENGTH_UNIT()
NAMED_UNIT(*)
SI_UNIT(.MILLI.,.METRE.)
);
#529=(
LENGTH_UNIT()
NAMED_UNIT(*)
SI_UNIT(.CENTI.,.METRE.)
);
#530=(
NAMED_UNIT(*)
PLANE_ANGLE_UNIT()
SI_UNIT($,.RADIAN.)
);
#531=(
NAMED_UNIT(*)
SI_UNIT($,.STERADIAN.)
SOLID_ANGLE_UNIT()
);
#532=SHAPE_DEFINITION_REPRESENTATION(#533,#534);
#533=PRODUCT_DEFINITION_SHAPE('',$,#536);
#534=SHAPE_REPRESENTATION('',(#328),#526);
#535=DESIGN_CONTEXT('part definition',#540,'design');
#536=PRODUCT_DEFINITION('230824 v1','230824 v1',#537,#535);
#537=PRODUCT_DEFINITION_FORMATION('',$,#542);
#538=PRODUCT_RELATED_PRODUCT_CATEGORY('230824 v1','230824 v1',(#542));
#539=APPLICATION_PROTOCOL_DEFINITION('international standard',
'ap203_configuration_controlled_3d_design_of_mechanical_parts_and_asse
mblies_mim_lf',2004,#540);
#540=APPLICATION_CONTEXT(
'Configuration Controlled 3D Design of Mechanical Parts and Assemblies');
#541=MECHANICAL_CONTEXT('part definition',#540,'mechanical');
#542=PRODUCT('230824 v1','230824 v1',$,(#541));
#543=PRESENTATION_STYLE_ASSIGNMENT((#544));
#544=SURFACE_STYLE_USAGE(.BOTH.,#547);
#545=SURFACE_STYLE_RENDERING_WITH_PROPERTIES($,#551,(#546));
#546=SURFACE_STYLE_TRANSPARENT(0.);
#547=SURFACE_SIDE_STYLE('',(#548,#545));
#548=SURFACE_STYLE_FILL_AREA(#549);
#549=FILL_AREA_STYLE('',(#550));
#550=FILL_AREA_STYLE_COLOUR('',#551);
#551=COLOUR_RGB('',0.501960784313725,0.501960784313725,0.501960784313725);
ENDSEC;
END-ISO-10303-21;
