ISO-10303-21;
HEADER;
/****************************************************************
 * Generated by software with PDE/Lib inside                    *
 * PDElib Version v51a, created Mon 03/22/2010                  *
 * International Technegroup Inc. (www.iti-oh.com)              *
 ****************************************************************/
FILE_DESCRIPTION((''),'2;1');
FILE_NAME('D:\\P\X2\0159\X0\evod katalogu\\P\X2\0159\X0\evod do STEP\\Modul 45\\Zaslepovac\S\m dopl\X2\0148\X0\ky\\220007\\220007.ipt.stp','2010-09-05T12:25:37',(''),(''),'Autodesk Inventor 2010','Autodesk Inventor 2010','');
FILE_SCHEMA(('AUTOMOTIVE_DESIGN { 1 0 10303 214 1 1 1 1 }'));
ENDSEC;
DATA;
#5=APPLICATION_CONTEXT('automotive design');
#6=APPLICATION_PROTOCOL_DEFINITION('International Standard','automotive_design',2001,#5);
#7=PRODUCT_CONTEXT('',#5,'mechanical');
#8=PRODUCT('220007','220007',$,(#7));
#9=PRODUCT_RELATED_PRODUCT_CATEGORY('part',$,(#8));
#10=PRODUCT_DEFINITION_FORMATION('',$,#8);
#11=PRODUCT_DEFINITION_CONTEXT('part definition',#5,'design');
#12=PRODUCT_DEFINITION('',$,#10,#11);
#18=(NAMED_UNIT(*)PLANE_ANGLE_UNIT()SI_UNIT($,.RADIAN.));
#19=DIMENSIONAL_EXPONENTS(0.0,0.0,0.0,0.0,0.0,0.0,0.0);
#20=PLANE_ANGLE_MEASURE_WITH_UNIT(PLANE_ANGLE_MEASURE(0.017453292500000),#18);
#24=(CONVERSION_BASED_UNIT('DEGREE',#20)NAMED_UNIT(#19)PLANE_ANGLE_UNIT());
#28=(NAMED_UNIT(*)SI_UNIT($,.STERADIAN.)SOLID_ANGLE_UNIT());
#32=(LENGTH_UNIT()NAMED_UNIT(*)SI_UNIT(.MILLI.,.METRE.));
#34=UNCERTAINTY_MEASURE_WITH_UNIT(LENGTH_MEASURE(0.010000000000000),#32,'DISTANCE_ACCURACY_VALUE','');
#36=(GEOMETRIC_REPRESENTATION_CONTEXT(3)GLOBAL_UNCERTAINTY_ASSIGNED_CONTEXT((#34))GLOBAL_UNIT_ASSIGNED_CONTEXT((#24,#28,#32))REPRESENTATION_CONTEXT('None','None'));
#37=AXIS2_PLACEMENT_3D('',#38,#39,#40);
#38=CARTESIAN_POINT('',(0.0,0.0,0.0));
#39=DIRECTION('',(0.0,0.0,1.0));
#40=DIRECTION('',(1.0,0.0,0.0));
#41=SHAPE_REPRESENTATION('',(#37),#36);
#42=PRODUCT_DEFINITION_SHAPE('','',#12);
#43=SHAPE_DEFINITION_REPRESENTATION(#42,#41);
#49=(NAMED_UNIT(*)PLANE_ANGLE_UNIT()SI_UNIT($,.RADIAN.));
#50=DIMENSIONAL_EXPONENTS(0.0,0.0,0.0,0.0,0.0,0.0,0.0);
#51=PLANE_ANGLE_MEASURE_WITH_UNIT(PLANE_ANGLE_MEASURE(0.017453292500000),#49);
#55=(CONVERSION_BASED_UNIT('DEGREE',#51)NAMED_UNIT(#50)PLANE_ANGLE_UNIT());
#59=(NAMED_UNIT(*)SI_UNIT($,.STERADIAN.)SOLID_ANGLE_UNIT());
#63=(LENGTH_UNIT()NAMED_UNIT(*)SI_UNIT(.MILLI.,.METRE.));
#65=UNCERTAINTY_MEASURE_WITH_UNIT(LENGTH_MEASURE(0.000001000000000),#63,'DISTANCE_ACCURACY_VALUE','');
#67=(GEOMETRIC_REPRESENTATION_CONTEXT(3)GLOBAL_UNCERTAINTY_ASSIGNED_CONTEXT((#65))GLOBAL_UNIT_ASSIGNED_CONTEXT((#55,#59,#63))REPRESENTATION_CONTEXT('','3D'));
#68=CARTESIAN_POINT('',(2.075886E-015,-5.799999999999996,0.0));
#69=DIRECTION('',(-3.758568E-016,1.0,0.0));
#70=DIRECTION('',(1.0,0.0,0.0));
#71=AXIS2_PLACEMENT_3D('',#68,#69,#70);
#72=CONICAL_SURFACE('',#71,3.336029765733804,19.999999999999979);
#73=CARTESIAN_POINT('',(-2.972059531467600,-6.799999999999997,3.639603E-016));
#74=VERTEX_POINT('',#73);
#75=CARTESIAN_POINT('',(2.451743E-015,-6.799999999999996,0.0));
#76=DIRECTION('',(0.0,1.0,0.0));
#77=DIRECTION('',(1.0,0.0,0.0));
#78=AXIS2_PLACEMENT_3D('',#75,#76,#77);
#79=CIRCLE('',#78,2.972059531467602);
#80=EDGE_CURVE('',#74,#74,#79,.T.);
#81=ORIENTED_EDGE('',*,*,#80,.T.);
#82=EDGE_LOOP('',(#81));
#83=FACE_OUTER_BOUND('',#82,.T.);
#84=CARTESIAN_POINT('',(-3.700000000000005,-4.799999999999997,-4.531044E-016));
#85=VERTEX_POINT('',#84);
#86=CARTESIAN_POINT('',(1.700029E-015,-4.799999999999996,0.0));
#87=DIRECTION('',(0.0,-1.0,0.0));
#88=DIRECTION('',(1.0,0.0,0.0));
#89=AXIS2_PLACEMENT_3D('',#86,#87,#88);
#90=CIRCLE('',#89,3.700000000000006);
#91=EDGE_CURVE('',#85,#85,#90,.T.);
#92=ORIENTED_EDGE('',*,*,#91,.T.);
#93=EDGE_LOOP('',(#92));
#94=FACE_BOUND('',#93,.T.);
#95=ADVANCED_FACE('',(#83,#94),#72,.T.);
#96=CARTESIAN_POINT('',(-3.300000000000004,-6.799999999999997,0.0));
#97=DIRECTION('',(0.0,-1.0,0.0));
#98=DIRECTION('',(0.0,0.0,-1.0));
#99=AXIS2_PLACEMENT_3D('',#96,#97,#98);
#100=PLANE('',#99);
#101=ORIENTED_EDGE('',*,*,#80,.F.);
#102=EDGE_LOOP('',(#101));
#103=FACE_OUTER_BOUND('',#102,.T.);
#104=CARTESIAN_POINT('',(-2.900000000000004,-6.799999999999998,0.0));
#105=VERTEX_POINT('',#104);
#106=CARTESIAN_POINT('',(2.451743E-015,-6.799999999999997,0.0));
#107=DIRECTION('',(0.0,1.0,0.0));
#108=DIRECTION('',(-1.0,0.0,0.0));
#109=AXIS2_PLACEMENT_3D('',#106,#107,#108);
#110=CIRCLE('',#109,2.900000000000006);
#111=EDGE_CURVE('',#105,#105,#110,.T.);
#112=ORIENTED_EDGE('',*,*,#111,.T.);
#113=EDGE_LOOP('',(#112));
#114=FACE_BOUND('',#113,.T.);
#115=ADVANCED_FACE('',(#103,#114),#100,.T.);
#116=CARTESIAN_POINT('',(1.173830E-015,-3.399999999999996,0.0));
#117=DIRECTION('',(-3.758568E-016,1.0,0.0));
#118=DIRECTION('',(-1.0,0.0,0.0));
#119=AXIS2_PLACEMENT_3D('',#116,#117,#118);
#120=CYLINDRICAL_SURFACE('',#119,3.700000000000006);
#121=CARTESIAN_POINT('',(-3.700000000000005,1.110223E-015,0.0));
#122=VERTEX_POINT('',#121);
#123=CARTESIAN_POINT('',(-1.040834E-016,2.220446E-015,0.0));
#124=DIRECTION('',(0.0,1.0,0.0));
#125=DIRECTION('',(-1.0,0.0,0.0));
#126=AXIS2_PLACEMENT_3D('',#123,#124,#125);
#127=CIRCLE('',#126,3.700000000000005);
#128=EDGE_CURVE('',#122,#122,#127,.T.);
#129=ORIENTED_EDGE('',*,*,#128,.F.);
#130=EDGE_LOOP('',(#129));
#131=FACE_OUTER_BOUND('',#130,.T.);
#132=ORIENTED_EDGE('',*,*,#91,.F.);
#133=EDGE_LOOP('',(#132));
#134=FACE_BOUND('',#133,.T.);
#135=ADVANCED_FACE('',(#131,#134),#120,.T.);
#136=CARTESIAN_POINT('',(-4.250000000000004,1.110223E-015,0.0));
#137=DIRECTION('',(0.0,-1.0,0.0));
#138=DIRECTION('',(0.0,0.0,-1.0));
#139=AXIS2_PLACEMENT_3D('',#136,#137,#138);
#140=PLANE('',#139);
#141=CARTESIAN_POINT('',(-4.800000000000003,1.110223E-015,0.0));
#142=VERTEX_POINT('',#141);
#143=CARTESIAN_POINT('',(-1.040834E-016,3.330669E-015,0.0));
#144=DIRECTION('',(0.0,1.0,0.0));
#145=DIRECTION('',(-1.0,0.0,0.0));
#146=AXIS2_PLACEMENT_3D('',#143,#144,#145);
#147=CIRCLE('',#146,4.800000000000003);
#148=EDGE_CURVE('',#142,#142,#147,.T.);
#149=ORIENTED_EDGE('',*,*,#148,.F.);
#150=EDGE_LOOP('',(#149));
#151=FACE_OUTER_BOUND('',#150,.T.);
#152=ORIENTED_EDGE('',*,*,#128,.T.);
#153=EDGE_LOOP('',(#152));
#154=FACE_BOUND('',#153,.T.);
#155=ADVANCED_FACE('',(#151,#154),#140,.T.);
#156=CARTESIAN_POINT('',(4.809029E-016,0.0,-4.800000000000011));
#157=CARTESIAN_POINT('',(-2.500809E-016,1.212774116291589,-2.553193529072901));
#158=CARTESIAN_POINT('',(-5.579557E-016,1.200000000000003,-8.743006E-016));
#159=CARTESIAN_POINT('',(4.800000000000011,1.804112E-015,-4.800000000000009));
#160=CARTESIAN_POINT('',(2.553193529072901,1.212774116291590,-2.553193529072900));
#161=CARTESIAN_POINT('',(3.163450E-016,1.200000000000003,-8.743006E-016));
#162=CARTESIAN_POINT('',(4.800000000000011,1.804112E-015,5.878305E-016));
#163=CARTESIAN_POINT('',(2.553193529072901,1.212774116291590,3.126760E-016));
#164=CARTESIAN_POINT('',(3.163450E-016,1.200000000000003,0.0));
#165=CARTESIAN_POINT('',(4.800000000000009,1.804112E-015,4.800000000000011));
#166=CARTESIAN_POINT('',(2.553193529072900,1.212774116291591,2.553193529072901));
#167=CARTESIAN_POINT('',(3.163450E-016,1.200000000000003,8.743006E-016));
#168=CARTESIAN_POINT('',(-6.947580E-016,0.0,4.800000000000011));
#169=CARTESIAN_POINT('',(-8.754329E-016,1.212774116291590,2.553193529072901));
#170=CARTESIAN_POINT('',(-5.579557E-016,1.200000000000003,8.743006E-016));
#171=CARTESIAN_POINT('',(-4.800000000000011,-1.804112E-015,4.800000000000009));
#172=CARTESIAN_POINT('',(-2.553193529072902,1.212774116291589,2.553193529072900));
#173=CARTESIAN_POINT('',(-1.432256E-015,1.200000000000003,8.743006E-016));
#174=CARTESIAN_POINT('',(-4.800000000000011,-1.804112E-015,-5.878305E-016));
#175=CARTESIAN_POINT('',(-2.553193529072902,1.212774116291588,-3.126760E-016));
#176=CARTESIAN_POINT('',(-1.432256E-015,1.200000000000003,0.0));
#177=CARTESIAN_POINT('',(-4.800000000000009,-1.804112E-015,-4.800000000000011));
#178=CARTESIAN_POINT('',(-2.553193529072901,1.212774116291588,-2.553193529072901));
#179=CARTESIAN_POINT('',(-1.432256E-015,1.200000000000003,-8.743006E-016));
#180=CARTESIAN_POINT('',(4.809029E-016,0.0,-4.800000000000011));
#181=CARTESIAN_POINT('',(-2.500809E-016,1.212774116291589,-2.553193529072901));
#182=CARTESIAN_POINT('',(-5.579557E-016,1.200000000000003,-8.743006E-016));
#190=(BOUNDED_SURFACE()B_SPLINE_SURFACE(2,2,((#156,#159,#162,#165,#168,#171,#174,#177,#180),(#157,#160,#163,#166,#169,#172,#175,#178,#181),(#158,#161,#164,#167,#170,#173,#176,#179,#182)),.UNSPECIFIED.,.F.,.T.,.U.)B_SPLINE_SURFACE_WITH_KNOTS((3,3),(3,2,2,2,3),(1.075835850736494,1.575799476599571),(0.0,1.570796326794897,3.141592653589793,4.712388980384690,6.283185307179586),.UNSPECIFIED.)GEOMETRIC_REPRESENTATION_ITEM()RATIONAL_B_SPLINE_SURFACE(((1.0,0.707106781186548,1.0,0.707106781186548,1.0,0.707106781186548,1.0,0.707106781186548,1.0),(0.968916921103153,0.685127725318431,0.968916921103153,0.685127725318431,0.968916921103153,0.685127725318431,0.968916921103153,0.685127725318431,0.968916921103153),(1.0,0.707106781186548,1.0,0.707106781186548,1.0,0.707106781186548,1.0,0.707106781186548,1.0)))REPRESENTATION_ITEM('')SURFACE());
#191=ORIENTED_EDGE('',*,*,#148,.T.);
#192=EDGE_LOOP('',(#191));
#193=FACE_OUTER_BOUND('',#192,.T.);
#194=ADVANCED_FACE('',(#193),#190,.T.);
#195=CARTESIAN_POINT('',(-1.450000000000003,1.110223E-015,0.0));
#196=DIRECTION('',(0.0,-1.0,0.0));
#197=DIRECTION('',(0.0,0.0,-1.0));
#198=AXIS2_PLACEMENT_3D('',#195,#196,#197);
#199=PLANE('',#198);
#200=CARTESIAN_POINT('',(-2.900000000000007,0.0,0.0));
#201=VERTEX_POINT('',#200);
#202=CARTESIAN_POINT('',(-1.040834E-016,1.110223E-015,0.0));
#203=DIRECTION('',(0.0,1.0,0.0));
#204=DIRECTION('',(-1.0,0.0,0.0));
#205=AXIS2_PLACEMENT_3D('',#202,#203,#204);
#206=CIRCLE('',#205,2.900000000000007);
#207=EDGE_CURVE('',#201,#201,#206,.T.);
#208=ORIENTED_EDGE('',*,*,#207,.F.);
#209=EDGE_LOOP('',(#208));
#210=FACE_OUTER_BOUND('',#209,.T.);
#211=ADVANCED_FACE('',(#210),#199,.T.);
#212=CARTESIAN_POINT('',(1.173830E-015,-3.399999999999998,0.0));
#213=DIRECTION('',(-3.758568E-016,1.0,0.0));
#214=DIRECTION('',(-1.0,0.0,0.0));
#215=AXIS2_PLACEMENT_3D('',#212,#213,#214);
#216=CYLINDRICAL_SURFACE('',#215,2.900000000000006);
#217=ORIENTED_EDGE('',*,*,#111,.F.);
#218=EDGE_LOOP('',(#217));
#219=FACE_OUTER_BOUND('',#218,.T.);
#220=ORIENTED_EDGE('',*,*,#207,.T.);
#221=EDGE_LOOP('',(#220));
#222=FACE_BOUND('',#221,.T.);
#223=ADVANCED_FACE('',(#219,#222),#216,.F.);
#224=CLOSED_SHELL('',(#95,#115,#135,#155,#194,#211,#223));
#225=MANIFOLD_SOLID_BREP('T\X2\011B\X0\leso1',#224);
#226=DRAUGHTING_PRE_DEFINED_COLOUR('black');
#227=FILL_AREA_STYLE_COLOUR('\X2\FFFD\X0\ern\X2\FFFD\X0\',#226);
#228=FILL_AREA_STYLE('\X2\FFFD\X0\ern\X2\FFFD\X0\',(#227));
#229=SURFACE_STYLE_FILL_AREA(#228);
#230=SURFACE_SIDE_STYLE('\X2\FFFD\X0\ern\X2\FFFD\X0\',(#229));
#231=SURFACE_STYLE_USAGE(.BOTH.,#230);
#232=PRESENTATION_STYLE_ASSIGNMENT((#231));
#233=STYLED_ITEM('',(#232),#225);
#234=MECHANICAL_DESIGN_GEOMETRIC_PRESENTATION_REPRESENTATION('',(#233),#36);
#235=ADVANCED_BREP_SHAPE_REPRESENTATION('ABSR',(#225),#36);
#236=SHAPE_REPRESENTATION_RELATIONSHIP('SRR','None',#235,#41);
ENDSEC;
END-ISO-10303-21;
