ISO-10303-21;
HEADER;
/* Generated by software containing ST-Developer
 * from STEP Tools, Inc. (www.steptools.com) 
 */

FILE_DESCRIPTION(
/* description */ (''),
/* implementation_level */ '2;1');

FILE_NAME(
/* name */ 'C:\\STEP\\210813.stp',
/* time_stamp */ '2014-03-13T20:47:17+01:00',
/* author */ ('jank'),
/* organization */ ('Alutec K&K'),
/* preprocessor_version */ 'ST-DEVELOPER v15.2',
/* originating_system */ 'Autodesk Inventor 2014',
/* authorisation */ '');

FILE_SCHEMA (('AUTOMOTIVE_DESIGN { 1 0 10303 214 3 1 1 }'));
ENDSEC;

DATA;
#10=SHAPE_REPRESENTATION_RELATIONSHIP('SRR','None',#211,#11);
#11=ADVANCED_BREP_SHAPE_REPRESENTATION($,(#126),#202);
#12=STYLED_ITEM($,(#220),#126);
#13=LINE($,#178,#25);
#14=LINE($,#180,#26);
#15=LINE($,#182,#27);
#16=LINE($,#183,#28);
#17=LINE($,#186,#29);
#18=LINE($,#188,#30);
#19=LINE($,#189,#31);
#20=LINE($,#192,#32);
#21=LINE($,#194,#33);
#22=LINE($,#195,#34);
#23=LINE($,#197,#35);
#24=LINE($,#198,#36);
#25=VECTOR($,#147,13.);
#26=VECTOR($,#148,1.);
#27=VECTOR($,#149,13.);
#28=VECTOR($,#150,1.);
#29=VECTOR($,#153,13.);
#30=VECTOR($,#154,1.);
#31=VECTOR($,#155,13.);
#32=VECTOR($,#158,13.);
#33=VECTOR($,#159,1.);
#34=VECTOR($,#160,13.);
#35=VECTOR($,#163,13.);
#36=VECTOR($,#164,13.);
#37=PLANE($,#131);
#38=PLANE($,#132);
#39=PLANE($,#133);
#40=PLANE($,#134);
#41=PLANE($,#135);
#42=PLANE($,#136);
#43=FACE_BOUND($,#54,.T.);
#44=FACE_BOUND($,#60,.T.);
#45=FACE_BOUND($,#62,.T.);
#46=FACE_OUTER_BOUND($,#53,.T.);
#47=FACE_OUTER_BOUND($,#55,.T.);
#48=FACE_OUTER_BOUND($,#56,.T.);
#49=FACE_OUTER_BOUND($,#57,.T.);
#50=FACE_OUTER_BOUND($,#58,.T.);
#51=FACE_OUTER_BOUND($,#59,.T.);
#52=FACE_OUTER_BOUND($,#61,.T.);
#53=EDGE_LOOP($,(#89));
#54=EDGE_LOOP($,(#90));
#55=EDGE_LOOP($,(#91,#92,#93,#94));
#56=EDGE_LOOP($,(#95,#96,#97,#98));
#57=EDGE_LOOP($,(#99,#100,#101,#102));
#58=EDGE_LOOP($,(#103,#104,#105,#106));
#59=EDGE_LOOP($,(#107,#108,#109,#110));
#60=EDGE_LOOP($,(#111));
#61=EDGE_LOOP($,(#112,#113,#114,#115));
#62=EDGE_LOOP($,(#116));
#63=CIRCLE($,#129,4.25);
#64=CIRCLE($,#130,4.25);
#65=VERTEX_POINT($,#171);
#66=VERTEX_POINT($,#173);
#67=VERTEX_POINT($,#176);
#68=VERTEX_POINT($,#177);
#69=VERTEX_POINT($,#179);
#70=VERTEX_POINT($,#181);
#71=VERTEX_POINT($,#185);
#72=VERTEX_POINT($,#187);
#73=VERTEX_POINT($,#191);
#74=VERTEX_POINT($,#193);
#75=EDGE_CURVE($,#65,#65,#63,.T.);
#76=EDGE_CURVE($,#66,#66,#64,.T.);
#77=EDGE_CURVE($,#67,#68,#13,.T.);
#78=EDGE_CURVE($,#69,#68,#14,.T.);
#79=EDGE_CURVE($,#70,#69,#15,.T.);
#80=EDGE_CURVE($,#70,#67,#16,.T.);
#81=EDGE_CURVE($,#68,#71,#17,.T.);
#82=EDGE_CURVE($,#72,#71,#18,.T.);
#83=EDGE_CURVE($,#69,#72,#19,.T.);
#84=EDGE_CURVE($,#71,#73,#20,.T.);
#85=EDGE_CURVE($,#74,#73,#21,.T.);
#86=EDGE_CURVE($,#72,#74,#22,.T.);
#87=EDGE_CURVE($,#73,#67,#23,.T.);
#88=EDGE_CURVE($,#74,#70,#24,.T.);
#89=ORIENTED_EDGE($,*,*,#75,.F.);
#90=ORIENTED_EDGE($,*,*,#76,.F.);
#91=ORIENTED_EDGE($,*,*,#77,.T.);
#92=ORIENTED_EDGE($,*,*,#78,.F.);
#93=ORIENTED_EDGE($,*,*,#79,.F.);
#94=ORIENTED_EDGE($,*,*,#80,.T.);
#95=ORIENTED_EDGE($,*,*,#81,.T.);
#96=ORIENTED_EDGE($,*,*,#82,.F.);
#97=ORIENTED_EDGE($,*,*,#83,.F.);
#98=ORIENTED_EDGE($,*,*,#78,.T.);
#99=ORIENTED_EDGE($,*,*,#84,.T.);
#100=ORIENTED_EDGE($,*,*,#85,.F.);
#101=ORIENTED_EDGE($,*,*,#86,.F.);
#102=ORIENTED_EDGE($,*,*,#82,.T.);
#103=ORIENTED_EDGE($,*,*,#87,.T.);
#104=ORIENTED_EDGE($,*,*,#80,.F.);
#105=ORIENTED_EDGE($,*,*,#88,.F.);
#106=ORIENTED_EDGE($,*,*,#85,.T.);
#107=ORIENTED_EDGE($,*,*,#77,.F.);
#108=ORIENTED_EDGE($,*,*,#87,.F.);
#109=ORIENTED_EDGE($,*,*,#84,.F.);
#110=ORIENTED_EDGE($,*,*,#81,.F.);
#111=ORIENTED_EDGE($,*,*,#76,.T.);
#112=ORIENTED_EDGE($,*,*,#88,.T.);
#113=ORIENTED_EDGE($,*,*,#79,.T.);
#114=ORIENTED_EDGE($,*,*,#83,.T.);
#115=ORIENTED_EDGE($,*,*,#86,.T.);
#116=ORIENTED_EDGE($,*,*,#75,.T.);
#117=CYLINDRICAL_SURFACE($,#128,4.25);
#118=ADVANCED_FACE($,(#46,#43),#117,.F.);
#119=ADVANCED_FACE($,(#47),#37,.T.);
#120=ADVANCED_FACE($,(#48),#38,.T.);
#121=ADVANCED_FACE($,(#49),#39,.T.);
#122=ADVANCED_FACE($,(#50),#40,.T.);
#123=ADVANCED_FACE($,(#51,#44),#41,.T.);
#124=ADVANCED_FACE($,(#52,#45),#42,.F.);
#125=CLOSED_SHELL($,(#118,#119,#120,#121,#122,#123,#124));
#126=MANIFOLD_SOLID_BREP('T\X2\011B\X0\leso1',#125);
#127=AXIS2_PLACEMENT_3D('placement',#169,#137,#138);
#128=AXIS2_PLACEMENT_3D($,#170,#139,#140);
#129=AXIS2_PLACEMENT_3D($,#172,#141,#142);
#130=AXIS2_PLACEMENT_3D($,#174,#143,#144);
#131=AXIS2_PLACEMENT_3D($,#175,#145,#146);
#132=AXIS2_PLACEMENT_3D($,#184,#151,#152);
#133=AXIS2_PLACEMENT_3D($,#190,#156,#157);
#134=AXIS2_PLACEMENT_3D($,#196,#161,#162);
#135=AXIS2_PLACEMENT_3D($,#199,#165,#166);
#136=AXIS2_PLACEMENT_3D($,#200,#167,#168);
#137=DIRECTION('axis',(0.,0.,1.));
#138=DIRECTION('refdir',(1.,0.,0.));
#139=DIRECTION('center_axis',(1.,0.,2.22044604925031E-016));
#140=DIRECTION('ref_axis',(2.22044604925031E-016,0.,-1.));
#141=DIRECTION('center_axis',(1.,0.,2.22044604925031E-016));
#142=DIRECTION('ref_axis',(2.22044604925031E-016,0.,-1.));
#143=DIRECTION('center_axis',(-1.,0.,-2.22044604925031E-016));
#144=DIRECTION('ref_axis',(2.22044604925031E-016,0.,-1.));
#145=DIRECTION('center_axis',(2.22044604925031E-016,-1.70803542250024E-016,
-1.));
#146=DIRECTION('ref_axis',(-1.,0.,0.));
#147=DIRECTION($,(-3.79260050587025E-032,-1.,1.70803542250024E-016));
#148=DIRECTION($,(1.,0.,2.22044604925031E-016));
#149=DIRECTION($,(-3.79260050587025E-032,-1.,1.70803542250024E-016));
#150=DIRECTION($,(1.,0.,2.22044604925031E-016));
#151=DIRECTION('center_axis',(3.79260050587025E-032,-1.,-1.70803542250024E-016));
#152=DIRECTION('ref_axis',(-1.,0.,0.));
#153=DIRECTION($,(-2.22044604925031E-016,-1.70803542250024E-016,1.));
#154=DIRECTION($,(1.,0.,2.22044604925031E-016));
#155=DIRECTION($,(-2.22044604925031E-016,-1.70803542250024E-016,1.));
#156=DIRECTION('center_axis',(-2.22044604925031E-016,8.5401771125012E-017,
1.));
#157=DIRECTION('ref_axis',(1.,0.,0.));
#158=DIRECTION($,(1.89630025293512E-032,1.,-8.5401771125012E-017));
#159=DIRECTION($,(1.,0.,2.22044604925031E-016));
#160=DIRECTION($,(1.89630025293512E-032,1.,-8.5401771125012E-017));
#161=DIRECTION('center_axis',(-3.79260050587025E-032,1.,1.70803542250024E-016));
#162=DIRECTION('ref_axis',(1.,0.,0.));
#163=DIRECTION($,(2.22044604925031E-016,1.70803542250024E-016,-1.));
#164=DIRECTION($,(2.22044604925031E-016,1.70803542250024E-016,-1.));
#165=DIRECTION('center_axis',(1.,0.,2.22044604925031E-016));
#166=DIRECTION('ref_axis',(2.22044604925031E-016,0.,-1.));
#167=DIRECTION('center_axis',(1.,0.,2.22044604925031E-016));
#168=DIRECTION('ref_axis',(2.22044604925031E-016,0.,-1.));
#169=CARTESIAN_POINT('',(0.,0.,0.));
#170=CARTESIAN_POINT('Origin',(-17.411952639522,0.,-3.86623014481602E-015));
#171=CARTESIAN_POINT('',(-9.43689570931383E-016,-5.20474889637625E-016,
4.25));
#172=CARTESIAN_POINT('Origin',(0.,0.,0.));
#173=CARTESIAN_POINT('',(1.,0.,-4.25));
#174=CARTESIAN_POINT('Origin',(1.,0.,2.22044604925031E-016));
#175=CARTESIAN_POINT('Origin',(1.4432899320127E-015,6.5,-6.5));
#176=CARTESIAN_POINT('',(1.,6.5,-6.5));
#177=CARTESIAN_POINT('',(1.,-6.5,-6.5));
#178=CARTESIAN_POINT($,(1.,6.5,-6.5));
#179=CARTESIAN_POINT('',(1.4432899320127E-015,-6.5,-6.5));
#180=CARTESIAN_POINT($,(1.4432899320127E-015,-6.5,-6.5));
#181=CARTESIAN_POINT('',(1.4432899320127E-015,6.5,-6.5));
#182=CARTESIAN_POINT($,(1.4432899320127E-015,6.5,-6.5));
#183=CARTESIAN_POINT($,(1.4432899320127E-015,6.5,-6.5));
#184=CARTESIAN_POINT('Origin',(1.4432899320127E-015,-6.5,-6.5));
#185=CARTESIAN_POINT('',(0.999999999999999,-6.5,6.5));
#186=CARTESIAN_POINT($,(1.,-6.5,-6.5));
#187=CARTESIAN_POINT('',(-1.4432899320127E-015,-6.5,6.5));
#188=CARTESIAN_POINT($,(-1.4432899320127E-015,-6.5,6.5));
#189=CARTESIAN_POINT($,(1.4432899320127E-015,-6.5,-6.5));
#190=CARTESIAN_POINT('Origin',(-1.4432899320127E-015,-6.5,6.5));
#191=CARTESIAN_POINT('',(0.999999999999999,6.5,6.5));
#192=CARTESIAN_POINT($,(0.999999999999999,-6.5,6.5));
#193=CARTESIAN_POINT('',(-1.4432899320127E-015,6.5,6.5));
#194=CARTESIAN_POINT($,(-1.4432899320127E-015,6.5,6.5));
#195=CARTESIAN_POINT($,(-1.4432899320127E-015,-6.5,6.5));
#196=CARTESIAN_POINT('Origin',(-1.4432899320127E-015,6.5,6.5));
#197=CARTESIAN_POINT($,(0.999999999999999,6.5,6.5));
#198=CARTESIAN_POINT($,(-1.4432899320127E-015,6.5,6.5));
#199=CARTESIAN_POINT('Origin',(1.,4.03717463500057E-016,1.33226762955019E-015));
#200=CARTESIAN_POINT('Origin',(-2.46519032881567E-031,1.51394048812521E-016,
1.11022302462516E-015));
#201=UNCERTAINTY_MEASURE_WITH_UNIT(LENGTH_MEASURE(0.01),#203,
'DISTANCE_ACCURACY_VALUE',
'Maximum model space distance between geometric entities at asserted c
onnectivities');
#202=(
GEOMETRIC_REPRESENTATION_CONTEXT(3)
GLOBAL_UNCERTAINTY_ASSIGNED_CONTEXT((#201))
GLOBAL_UNIT_ASSIGNED_CONTEXT((#203,#206,#204))
REPRESENTATION_CONTEXT('','3D')
);
#203=(
LENGTH_UNIT()
NAMED_UNIT(*)
SI_UNIT(.MILLI.,.METRE.)
);
#204=(
NAMED_UNIT(*)
SI_UNIT($,.STERADIAN.)
SOLID_ANGLE_UNIT()
);
#205=DIMENSIONAL_EXPONENTS(0.,0.,0.,0.,0.,0.,0.);
#206=(
CONVERSION_BASED_UNIT('degree',#208)
NAMED_UNIT(#205)
PLANE_ANGLE_UNIT()
);
#207=(
NAMED_UNIT(*)
PLANE_ANGLE_UNIT()
SI_UNIT($,.RADIAN.)
);
#208=PLANE_ANGLE_MEASURE_WITH_UNIT(PLANE_ANGLE_MEASURE(0.01745329252),#207);
#209=SHAPE_DEFINITION_REPRESENTATION(#210,#211);
#210=PRODUCT_DEFINITION_SHAPE('',$,#213);
#211=SHAPE_REPRESENTATION('',(#127),#202);
#212=PRODUCT_DEFINITION_CONTEXT('3D Mechanical Parts',#216,'design');
#213=PRODUCT_DEFINITION('210813','210813',#214,#212);
#214=PRODUCT_DEFINITION_FORMATION('',$,#218);
#215=APPLICATION_PROTOCOL_DEFINITION('international standard',
'automotive_design',2009,#216);
#216=APPLICATION_CONTEXT(
'Core Data for Automotive Mechanical Design Process');
#217=PRODUCT_CONTEXT('3D Mechanical Parts',#216,'mechanical');
#218=PRODUCT('210813','210813',$,(#217));
#219=PRESENTATION_STYLE_ASSIGNMENT((#221));
#220=PRESENTATION_STYLE_ASSIGNMENT((#222));
#221=SURFACE_STYLE_USAGE(.BOTH.,#223);
#222=SURFACE_STYLE_USAGE(.BOTH.,#224);
#223=SURFACE_SIDE_STYLE($,(#225));
#224=SURFACE_SIDE_STYLE($,(#226));
#225=SURFACE_STYLE_FILL_AREA(#227);
#226=SURFACE_STYLE_FILL_AREA(#228);
#227=FILL_AREA_STYLE($,(#229));
#228=FILL_AREA_STYLE($,(#230));
#229=FILL_AREA_STYLE_COLOUR($,#231);
#230=FILL_AREA_STYLE_COLOUR($,#232);
#231=COLOUR_RGB('',0.749019607843137,0.749019607843137,0.749019607843137);
#232=COLOUR_RGB('',0.63921568627451,0.63921568627451,0.662745098039216);
ENDSEC;
END-ISO-10303-21;
