ISO-10303-21;
HEADER;
/* Generated by software containing ST-Developer
 * from STEP Tools, Inc. (www.steptools.com) 
 */

FILE_DESCRIPTION(
/* description */ ('Matice s p\X2\015900ED\X0\rubou'),
/* implementation_level */ '2;1');

FILE_NAME(
/* name */ 
'C:\\InventorWorking - Vault\\Projects\\Alutec\\ZWYMIAROWANE PRODUKTY\\
UZUPELNIENIE BRAKOW\\ELEMENTY ZLACZNE\\210810.stp',
/* time_stamp */ '2022-09-20T13:22:11+02:00',
/* author */ ('aluteckkpl_tw'),
/* organization */ (''),
/* preprocessor_version */ 'ST-DEVELOPER v18.1',
/* originating_system */ 'Autodesk Inventor 2021',
/* authorisation */ '');

FILE_SCHEMA (('AUTOMOTIVE_DESIGN { 1 0 10303 214 3 1 1 }'));
ENDSEC;

DATA;
#10=MECHANICAL_DESIGN_GEOMETRIC_PRESENTATION_REPRESENTATION('',(#13),#428);
#11=SHAPE_REPRESENTATION_RELATIONSHIP('SRR','None',#435,#12);
#12=ADVANCED_BREP_SHAPE_REPRESENTATION('',(#14),#427);
#13=STYLED_ITEM('',(#444),#14);
#14=MANIFOLD_SOLID_BREP('T\X2\011B\X0\leso1',#232);
#15=FACE_BOUND('',#48,.T.);
#16=FACE_BOUND('',#52,.T.);
#17=CYLINDRICAL_SURFACE('',#257,3.3235);
#18=CYLINDRICAL_SURFACE('',#270,10.5);
#19=PLANE('',#255);
#20=PLANE('',#256);
#21=PLANE('',#262);
#22=PLANE('',#263);
#23=PLANE('',#264);
#24=PLANE('',#265);
#25=PLANE('',#266);
#26=PLANE('',#273);
#27=FACE_OUTER_BOUND('',#39,.T.);
#28=FACE_OUTER_BOUND('',#40,.T.);
#29=FACE_OUTER_BOUND('',#41,.T.);
#30=FACE_OUTER_BOUND('',#42,.T.);
#31=FACE_OUTER_BOUND('',#43,.T.);
#32=FACE_OUTER_BOUND('',#44,.T.);
#33=FACE_OUTER_BOUND('',#45,.T.);
#34=FACE_OUTER_BOUND('',#46,.T.);
#35=FACE_OUTER_BOUND('',#47,.T.);
#36=FACE_OUTER_BOUND('',#49,.T.);
#37=FACE_OUTER_BOUND('',#50,.T.);
#38=FACE_OUTER_BOUND('',#51,.T.);
#39=EDGE_LOOP('',(#152,#153,#154,#155,#156,#157,#158,#159,#160,#161));
#40=EDGE_LOOP('',(#162,#163,#164,#165));
#41=EDGE_LOOP('',(#166,#167,#168,#169));
#42=EDGE_LOOP('',(#170,#171,#172,#173,#174,#175));
#43=EDGE_LOOP('',(#176,#177,#178,#179));
#44=EDGE_LOOP('',(#180,#181,#182,#183));
#45=EDGE_LOOP('',(#184,#185,#186,#187));
#46=EDGE_LOOP('',(#188,#189,#190,#191,#192));
#47=EDGE_LOOP('',(#193,#194));
#48=EDGE_LOOP('',(#195,#196));
#49=EDGE_LOOP('',(#197,#198,#199,#200,#201,#202,#203,#204,#205,#206,#207));
#50=EDGE_LOOP('',(#208,#209,#210,#211,#212,#213));
#51=EDGE_LOOP('',(#214,#215));
#52=EDGE_LOOP('',(#216,#217));
#53=(
BOUNDED_CURVE()
B_SPLINE_CURVE(2,(#339,#340,#341),.UNSPECIFIED.,.F.,.F.)
B_SPLINE_CURVE_WITH_KNOTS((3,3),(0.,0.759483489750647),.UNSPECIFIED.)
CURVE()
GEOMETRIC_REPRESENTATION_ITEM()
RATIONAL_B_SPLINE_CURVE((1.,1.15470053837926,1.))
REPRESENTATION_ITEM('')
);
#54=(
BOUNDED_CURVE()
B_SPLINE_CURVE(2,(#343,#344,#345),.UNSPECIFIED.,.F.,.F.)
B_SPLINE_CURVE_WITH_KNOTS((3,3),(0.,0.759483489750647),.UNSPECIFIED.)
CURVE()
GEOMETRIC_REPRESENTATION_ITEM()
RATIONAL_B_SPLINE_CURVE((1.,1.15470053837925,1.))
REPRESENTATION_ITEM('')
);
#55=(
BOUNDED_CURVE()
B_SPLINE_CURVE(2,(#347,#348,#349),.UNSPECIFIED.,.F.,.F.)
B_SPLINE_CURVE_WITH_KNOTS((3,3),(0.,0.759483489750648),.UNSPECIFIED.)
CURVE()
GEOMETRIC_REPRESENTATION_ITEM()
RATIONAL_B_SPLINE_CURVE((1.,1.15470053837925,1.))
REPRESENTATION_ITEM('')
);
#56=(
BOUNDED_CURVE()
B_SPLINE_CURVE(2,(#351,#352,#353),.UNSPECIFIED.,.F.,.F.)
B_SPLINE_CURVE_WITH_KNOTS((3,3),(0.,0.759483489750649),.UNSPECIFIED.)
CURVE()
GEOMETRIC_REPRESENTATION_ITEM()
RATIONAL_B_SPLINE_CURVE((1.,1.15470053837925,1.))
REPRESENTATION_ITEM('')
);
#57=(
BOUNDED_CURVE()
B_SPLINE_CURVE(2,(#355,#356,#357),.UNSPECIFIED.,.F.,.F.)
B_SPLINE_CURVE_WITH_KNOTS((3,3),(0.,0.759483489750648),.UNSPECIFIED.)
CURVE()
GEOMETRIC_REPRESENTATION_ITEM()
RATIONAL_B_SPLINE_CURVE((1.,1.15470053837925,1.))
REPRESENTATION_ITEM('')
);
#58=(
BOUNDED_CURVE()
B_SPLINE_CURVE(2,(#358,#359,#360),.UNSPECIFIED.,.F.,.F.)
B_SPLINE_CURVE_WITH_KNOTS((3,3),(0.,0.759483489750648),.UNSPECIFIED.)
CURVE()
GEOMETRIC_REPRESENTATION_ITEM()
RATIONAL_B_SPLINE_CURVE((1.,1.15470053837925,1.))
REPRESENTATION_ITEM('')
);
#59=(
BOUNDED_CURVE()
B_SPLINE_CURVE(2,(#365,#366,#367),.UNSPECIFIED.,.F.,.F.)
B_SPLINE_CURVE_WITH_KNOTS((3,3),(0.,0.752487335814037),.UNSPECIFIED.)
CURVE()
GEOMETRIC_REPRESENTATION_ITEM()
RATIONAL_B_SPLINE_CURVE((1.,1.15470053837926,1.))
REPRESENTATION_ITEM('')
);
#60=(
BOUNDED_CURVE()
B_SPLINE_CURVE(2,(#372,#373,#374),.UNSPECIFIED.,.F.,.F.)
B_SPLINE_CURVE_WITH_KNOTS((3,3),(0.,0.752487335814038),.UNSPECIFIED.)
CURVE()
GEOMETRIC_REPRESENTATION_ITEM()
RATIONAL_B_SPLINE_CURVE((1.,1.15470053837926,1.))
REPRESENTATION_ITEM('')
);
#61=(
BOUNDED_CURVE()
B_SPLINE_CURVE(2,(#388,#389,#390),.UNSPECIFIED.,.F.,.F.)
B_SPLINE_CURVE_WITH_KNOTS((3,3),(0.,0.752487335814032),.UNSPECIFIED.)
CURVE()
GEOMETRIC_REPRESENTATION_ITEM()
RATIONAL_B_SPLINE_CURVE((1.,1.15470053837926,1.))
REPRESENTATION_ITEM('')
);
#62=(
BOUNDED_CURVE()
B_SPLINE_CURVE(2,(#393,#394,#395),.UNSPECIFIED.,.F.,.F.)
B_SPLINE_CURVE_WITH_KNOTS((3,3),(0.,0.752487335814033),.UNSPECIFIED.)
CURVE()
GEOMETRIC_REPRESENTATION_ITEM()
RATIONAL_B_SPLINE_CURVE((1.,1.15470053837926,1.))
REPRESENTATION_ITEM('')
);
#63=(
BOUNDED_CURVE()
B_SPLINE_CURVE(2,(#399,#400,#401),.UNSPECIFIED.,.F.,.F.)
B_SPLINE_CURVE_WITH_KNOTS((3,3),(0.,0.752487335814032),.UNSPECIFIED.)
CURVE()
GEOMETRIC_REPRESENTATION_ITEM()
RATIONAL_B_SPLINE_CURVE((1.,1.15470053837925,1.))
REPRESENTATION_ITEM('')
);
#64=(
BOUNDED_CURVE()
B_SPLINE_CURVE(2,(#405,#406,#407),.UNSPECIFIED.,.F.,.F.)
B_SPLINE_CURVE_WITH_KNOTS((3,3),(0.376243667907015,0.75248733581403),
 .UNSPECIFIED.)
CURVE()
GEOMETRIC_REPRESENTATION_ITEM()
RATIONAL_B_SPLINE_CURVE((1.07735026918963,1.07735026918963,1.))
REPRESENTATION_ITEM('')
);
#65=(
BOUNDED_CURVE()
B_SPLINE_CURVE(2,(#408,#409,#410),.UNSPECIFIED.,.F.,.F.)
B_SPLINE_CURVE_WITH_KNOTS((3,3),(0.,0.376243667907015),.UNSPECIFIED.)
CURVE()
GEOMETRIC_REPRESENTATION_ITEM()
RATIONAL_B_SPLINE_CURVE((1.,1.07735026918963,1.07735026918963))
REPRESENTATION_ITEM('')
);
#66=LINE('',#337,#76);
#67=LINE('',#363,#77);
#68=LINE('',#368,#78);
#69=LINE('',#371,#79);
#70=LINE('',#381,#80);
#71=LINE('',#387,#81);
#72=LINE('',#396,#82);
#73=LINE('',#402,#83);
#74=LINE('',#417,#84);
#75=LINE('',#423,#85);
#76=VECTOR('',#282,6.6395280956807);
#77=VECTOR('',#285,10.);
#78=VECTOR('',#286,10.);
#79=VECTOR('',#289,10.);
#80=VECTOR('',#296,3.3235);
#81=VECTOR('',#303,10.);
#82=VECTOR('',#306,10.);
#83=VECTOR('',#309,10.);
#84=VECTOR('',#320,5.25);
#85=VECTOR('',#327,10.5);
#86=CIRCLE('',#253,5.77350269189626);
#87=CIRCLE('',#254,5.77350269189626);
#88=CIRCLE('',#258,3.3235);
#89=CIRCLE('',#259,3.3235);
#90=CIRCLE('',#260,3.3235);
#91=CIRCLE('',#261,3.3235);
#92=CIRCLE('',#268,10.5);
#93=CIRCLE('',#269,10.5);
#94=CIRCLE('',#271,10.5);
#95=CIRCLE('',#272,10.5);
#96=VERTEX_POINT('',#332);
#97=VERTEX_POINT('',#333);
#98=VERTEX_POINT('',#336);
#99=VERTEX_POINT('',#338);
#100=VERTEX_POINT('',#342);
#101=VERTEX_POINT('',#346);
#102=VERTEX_POINT('',#350);
#103=VERTEX_POINT('',#354);
#104=VERTEX_POINT('',#362);
#105=VERTEX_POINT('',#364);
#106=VERTEX_POINT('',#370);
#107=VERTEX_POINT('',#376);
#108=VERTEX_POINT('',#377);
#109=VERTEX_POINT('',#380);
#110=VERTEX_POINT('',#382);
#111=VERTEX_POINT('',#386);
#112=VERTEX_POINT('',#392);
#113=VERTEX_POINT('',#398);
#114=VERTEX_POINT('',#404);
#115=VERTEX_POINT('',#413);
#116=VERTEX_POINT('',#414);
#117=VERTEX_POINT('',#419);
#118=VERTEX_POINT('',#420);
#119=EDGE_CURVE('',#96,#97,#86,.T.);
#120=EDGE_CURVE('',#97,#96,#87,.T.);
#121=EDGE_CURVE('',#97,#98,#66,.T.);
#122=EDGE_CURVE('',#99,#98,#53,.T.);
#123=EDGE_CURVE('',#100,#99,#54,.T.);
#124=EDGE_CURVE('',#101,#100,#55,.T.);
#125=EDGE_CURVE('',#102,#101,#56,.T.);
#126=EDGE_CURVE('',#103,#102,#57,.T.);
#127=EDGE_CURVE('',#98,#103,#58,.T.);
#128=EDGE_CURVE('',#102,#104,#67,.T.);
#129=EDGE_CURVE('',#105,#104,#59,.T.);
#130=EDGE_CURVE('',#103,#105,#68,.T.);
#131=EDGE_CURVE('',#101,#106,#69,.T.);
#132=EDGE_CURVE('',#104,#106,#60,.T.);
#133=EDGE_CURVE('',#107,#108,#88,.T.);
#134=EDGE_CURVE('',#108,#107,#89,.T.);
#135=EDGE_CURVE('',#108,#109,#70,.T.);
#136=EDGE_CURVE('',#110,#109,#90,.T.);
#137=EDGE_CURVE('',#109,#110,#91,.T.);
#138=EDGE_CURVE('',#100,#111,#71,.T.);
#139=EDGE_CURVE('',#106,#111,#61,.T.);
#140=EDGE_CURVE('',#112,#105,#62,.T.);
#141=EDGE_CURVE('',#98,#112,#72,.T.);
#142=EDGE_CURVE('',#113,#112,#63,.T.);
#143=EDGE_CURVE('',#99,#113,#73,.T.);
#144=EDGE_CURVE('',#114,#113,#64,.T.);
#145=EDGE_CURVE('',#111,#114,#65,.T.);
#146=EDGE_CURVE('',#115,#116,#92,.T.);
#147=EDGE_CURVE('',#116,#115,#93,.T.);
#148=EDGE_CURVE('',#116,#114,#74,.T.);
#149=EDGE_CURVE('',#117,#118,#94,.T.);
#150=EDGE_CURVE('',#118,#117,#95,.T.);
#151=EDGE_CURVE('',#118,#116,#75,.T.);
#152=ORIENTED_EDGE('',*,*,#119,.F.);
#153=ORIENTED_EDGE('',*,*,#120,.F.);
#154=ORIENTED_EDGE('',*,*,#121,.T.);
#155=ORIENTED_EDGE('',*,*,#122,.F.);
#156=ORIENTED_EDGE('',*,*,#123,.F.);
#157=ORIENTED_EDGE('',*,*,#124,.F.);
#158=ORIENTED_EDGE('',*,*,#125,.F.);
#159=ORIENTED_EDGE('',*,*,#126,.F.);
#160=ORIENTED_EDGE('',*,*,#127,.F.);
#161=ORIENTED_EDGE('',*,*,#121,.F.);
#162=ORIENTED_EDGE('',*,*,#126,.T.);
#163=ORIENTED_EDGE('',*,*,#128,.T.);
#164=ORIENTED_EDGE('',*,*,#129,.F.);
#165=ORIENTED_EDGE('',*,*,#130,.F.);
#166=ORIENTED_EDGE('',*,*,#125,.T.);
#167=ORIENTED_EDGE('',*,*,#131,.T.);
#168=ORIENTED_EDGE('',*,*,#132,.F.);
#169=ORIENTED_EDGE('',*,*,#128,.F.);
#170=ORIENTED_EDGE('',*,*,#133,.F.);
#171=ORIENTED_EDGE('',*,*,#134,.F.);
#172=ORIENTED_EDGE('',*,*,#135,.T.);
#173=ORIENTED_EDGE('',*,*,#136,.F.);
#174=ORIENTED_EDGE('',*,*,#137,.F.);
#175=ORIENTED_EDGE('',*,*,#135,.F.);
#176=ORIENTED_EDGE('',*,*,#124,.T.);
#177=ORIENTED_EDGE('',*,*,#138,.T.);
#178=ORIENTED_EDGE('',*,*,#139,.F.);
#179=ORIENTED_EDGE('',*,*,#131,.F.);
#180=ORIENTED_EDGE('',*,*,#127,.T.);
#181=ORIENTED_EDGE('',*,*,#130,.T.);
#182=ORIENTED_EDGE('',*,*,#140,.F.);
#183=ORIENTED_EDGE('',*,*,#141,.F.);
#184=ORIENTED_EDGE('',*,*,#122,.T.);
#185=ORIENTED_EDGE('',*,*,#141,.T.);
#186=ORIENTED_EDGE('',*,*,#142,.F.);
#187=ORIENTED_EDGE('',*,*,#143,.F.);
#188=ORIENTED_EDGE('',*,*,#123,.T.);
#189=ORIENTED_EDGE('',*,*,#143,.T.);
#190=ORIENTED_EDGE('',*,*,#144,.F.);
#191=ORIENTED_EDGE('',*,*,#145,.F.);
#192=ORIENTED_EDGE('',*,*,#138,.F.);
#193=ORIENTED_EDGE('',*,*,#119,.T.);
#194=ORIENTED_EDGE('',*,*,#120,.T.);
#195=ORIENTED_EDGE('',*,*,#136,.T.);
#196=ORIENTED_EDGE('',*,*,#137,.T.);
#197=ORIENTED_EDGE('',*,*,#146,.F.);
#198=ORIENTED_EDGE('',*,*,#147,.F.);
#199=ORIENTED_EDGE('',*,*,#148,.T.);
#200=ORIENTED_EDGE('',*,*,#144,.T.);
#201=ORIENTED_EDGE('',*,*,#142,.T.);
#202=ORIENTED_EDGE('',*,*,#140,.T.);
#203=ORIENTED_EDGE('',*,*,#129,.T.);
#204=ORIENTED_EDGE('',*,*,#132,.T.);
#205=ORIENTED_EDGE('',*,*,#139,.T.);
#206=ORIENTED_EDGE('',*,*,#145,.T.);
#207=ORIENTED_EDGE('',*,*,#148,.F.);
#208=ORIENTED_EDGE('',*,*,#149,.F.);
#209=ORIENTED_EDGE('',*,*,#150,.F.);
#210=ORIENTED_EDGE('',*,*,#151,.T.);
#211=ORIENTED_EDGE('',*,*,#147,.T.);
#212=ORIENTED_EDGE('',*,*,#146,.T.);
#213=ORIENTED_EDGE('',*,*,#151,.F.);
#214=ORIENTED_EDGE('',*,*,#149,.T.);
#215=ORIENTED_EDGE('',*,*,#150,.T.);
#216=ORIENTED_EDGE('',*,*,#133,.T.);
#217=ORIENTED_EDGE('',*,*,#134,.T.);
#218=CONICAL_SURFACE('',#252,6.6395280956807,1.0471975511966);
#219=CONICAL_SURFACE('',#267,5.25,1.30899693899575);
#220=ADVANCED_FACE('',(#27),#218,.T.);
#221=ADVANCED_FACE('',(#28),#19,.T.);
#222=ADVANCED_FACE('',(#29),#20,.T.);
#223=ADVANCED_FACE('',(#30),#17,.F.);
#224=ADVANCED_FACE('',(#31),#21,.T.);
#225=ADVANCED_FACE('',(#32),#22,.T.);
#226=ADVANCED_FACE('',(#33),#23,.T.);
#227=ADVANCED_FACE('',(#34),#24,.T.);
#228=ADVANCED_FACE('',(#35,#15),#25,.T.);
#229=ADVANCED_FACE('',(#36),#219,.T.);
#230=ADVANCED_FACE('',(#37),#18,.T.);
#231=ADVANCED_FACE('',(#38,#16),#26,.T.);
#232=CLOSED_SHELL('',(#220,#221,#222,#223,#224,#225,#226,#227,#228,#229,
#230,#231));
#233=DERIVED_UNIT_ELEMENT(#235,1.);
#234=DERIVED_UNIT_ELEMENT(#430,3.);
#235=(
MASS_UNIT()
NAMED_UNIT(*)
SI_UNIT($,.GRAM.)
);
#236=DERIVED_UNIT((#233,#234));
#237=MEASURE_REPRESENTATION_ITEM('density measure',
POSITIVE_RATIO_MEASURE(7.85),#236);
#238=PROPERTY_DEFINITION_REPRESENTATION(#243,#240);
#239=PROPERTY_DEFINITION_REPRESENTATION(#244,#241);
#240=REPRESENTATION('material name',(#242),#427);
#241=REPRESENTATION('density',(#237),#427);
#242=DESCRIPTIVE_REPRESENTATION_ITEM('Ocel pozinkovan\X\E1',
'Ocel pozinkovan\X\E1');
#243=PROPERTY_DEFINITION('material property','material name',#437);
#244=PROPERTY_DEFINITION('material property','density of part',#437);
#245=DATE_TIME_ROLE('creation_date');
#246=APPLIED_DATE_AND_TIME_ASSIGNMENT(#247,#245,(#437));
#247=DATE_AND_TIME(#248,#249);
#248=CALENDAR_DATE(2015,27,11);
#249=LOCAL_TIME(0,0,0.,#250);
#250=COORDINATED_UNIVERSAL_TIME_OFFSET(0,0,.BEHIND.);
#251=AXIS2_PLACEMENT_3D('placement',#330,#274,#275);
#252=AXIS2_PLACEMENT_3D('',#331,#276,#277);
#253=AXIS2_PLACEMENT_3D('',#334,#278,#279);
#254=AXIS2_PLACEMENT_3D('',#335,#280,#281);
#255=AXIS2_PLACEMENT_3D('',#361,#283,#284);
#256=AXIS2_PLACEMENT_3D('',#369,#287,#288);
#257=AXIS2_PLACEMENT_3D('',#375,#290,#291);
#258=AXIS2_PLACEMENT_3D('',#378,#292,#293);
#259=AXIS2_PLACEMENT_3D('',#379,#294,#295);
#260=AXIS2_PLACEMENT_3D('',#383,#297,#298);
#261=AXIS2_PLACEMENT_3D('',#384,#299,#300);
#262=AXIS2_PLACEMENT_3D('',#385,#301,#302);
#263=AXIS2_PLACEMENT_3D('',#391,#304,#305);
#264=AXIS2_PLACEMENT_3D('',#397,#307,#308);
#265=AXIS2_PLACEMENT_3D('',#403,#310,#311);
#266=AXIS2_PLACEMENT_3D('',#411,#312,#313);
#267=AXIS2_PLACEMENT_3D('',#412,#314,#315);
#268=AXIS2_PLACEMENT_3D('',#415,#316,#317);
#269=AXIS2_PLACEMENT_3D('',#416,#318,#319);
#270=AXIS2_PLACEMENT_3D('',#418,#321,#322);
#271=AXIS2_PLACEMENT_3D('',#421,#323,#324);
#272=AXIS2_PLACEMENT_3D('',#422,#325,#326);
#273=AXIS2_PLACEMENT_3D('',#424,#328,#329);
#274=DIRECTION('axis',(0.,0.,1.));
#275=DIRECTION('refdir',(1.,0.,0.));
#276=DIRECTION('center_axis',(0.,-1.,0.));
#277=DIRECTION('ref_axis',(0.,0.,1.));
#278=DIRECTION('center_axis',(-1.78985747866792E-16,1.,-8.85749740388546E-18));
#279=DIRECTION('ref_axis',(0.,0.,1.));
#280=DIRECTION('center_axis',(-1.78985747866792E-16,1.,-8.85749740388546E-18));
#281=DIRECTION('ref_axis',(0.,0.,1.));
#282=DIRECTION('',(1.06057523872491E-16,-0.5,-0.866025403784439));
#283=DIRECTION('center_axis',(1.,1.90277406582709E-16,-7.39601033224448E-16));
#284=DIRECTION('ref_axis',(-7.39601033224448E-16,0.,-1.));
#285=DIRECTION('',(1.90277406582709E-16,-1.,0.));
#286=DIRECTION('',(1.90277406582709E-16,-1.,0.));
#287=DIRECTION('center_axis',(0.5,9.51387032913543E-17,0.866025403784438));
#288=DIRECTION('ref_axis',(0.866025403784438,0.,-0.5));
#289=DIRECTION('',(1.90277406582709E-16,-1.,0.));
#290=DIRECTION('center_axis',(1.84485088054155E-16,-1.,0.));
#291=DIRECTION('ref_axis',(1.,1.84485088054155E-16,0.));
#292=DIRECTION('center_axis',(-1.84485088054155E-16,1.,0.));
#293=DIRECTION('ref_axis',(1.,1.84485088054155E-16,0.));
#294=DIRECTION('center_axis',(-1.84485088054155E-16,1.,0.));
#295=DIRECTION('ref_axis',(1.,1.84485088054155E-16,0.));
#296=DIRECTION('',(-1.84485088054155E-16,1.,0.));
#297=DIRECTION('center_axis',(1.78985747866792E-16,-1.,8.85749740388546E-18));
#298=DIRECTION('ref_axis',(1.,1.84485088054155E-16,0.));
#299=DIRECTION('center_axis',(1.78985747866792E-16,-1.,8.85749740388546E-18));
#300=DIRECTION('ref_axis',(1.,1.84485088054155E-16,0.));
#301=DIRECTION('center_axis',(-0.5,-9.51387032913543E-17,0.866025403784439));
#302=DIRECTION('ref_axis',(0.866025403784439,0.,0.5));
#303=DIRECTION('',(1.90277406582709E-16,-1.,0.));
#304=DIRECTION('center_axis',(0.5,9.51387032913542E-17,-0.866025403784439));
#305=DIRECTION('ref_axis',(-0.866025403784439,0.,-0.5));
#306=DIRECTION('',(1.90277406582709E-16,-1.,0.));
#307=DIRECTION('center_axis',(-0.5,-9.51387032913543E-17,-0.866025403784438));
#308=DIRECTION('ref_axis',(-0.866025403784438,0.,0.5));
#309=DIRECTION('',(1.90277406582709E-16,-1.,0.));
#310=DIRECTION('center_axis',(-1.,-1.90277406582709E-16,1.4792020664489E-16));
#311=DIRECTION('ref_axis',(1.4792020664489E-16,0.,1.));
#312=DIRECTION('center_axis',(-1.78985747866792E-16,1.,-8.85749740388546E-18));
#313=DIRECTION('ref_axis',(0.,8.85749740388546E-18,1.));
#314=DIRECTION('center_axis',(1.84485088054155E-16,-1.,0.));
#315=DIRECTION('ref_axis',(1.,0.,0.));
#316=DIRECTION('center_axis',(1.84485088054155E-16,-1.,0.));
#317=DIRECTION('ref_axis',(1.,0.,0.));
#318=DIRECTION('center_axis',(1.84485088054155E-16,-1.,0.));
#319=DIRECTION('ref_axis',(1.,0.,0.));
#320=DIRECTION('',(0.965925826289068,0.258819045102521,1.18291797137867E-16));
#321=DIRECTION('center_axis',(1.84485088054155E-16,-1.,0.));
#322=DIRECTION('ref_axis',(1.,0.,0.));
#323=DIRECTION('center_axis',(1.84485088054155E-16,-1.,0.));
#324=DIRECTION('ref_axis',(1.,0.,0.));
#325=DIRECTION('center_axis',(1.84485088054155E-16,-1.,0.));
#326=DIRECTION('ref_axis',(1.,0.,0.));
#327=DIRECTION('',(-1.84485088054155E-16,1.,0.));
#328=DIRECTION('center_axis',(1.84485088054155E-16,-1.,0.));
#329=DIRECTION('ref_axis',(0.,0.,-1.));
#330=CARTESIAN_POINT('',(0.,0.,0.));
#331=CARTESIAN_POINT('Origin',(0.,7.5,0.));
#332=CARTESIAN_POINT('',(0.,8.,5.77350269189626));
#333=CARTESIAN_POINT('',(7.07050159149938E-16,8.,-5.77350269189626));
#334=CARTESIAN_POINT('Origin',(0.,8.,0.));
#335=CARTESIAN_POINT('Origin',(0.,8.,0.));
#336=CARTESIAN_POINT('',(-6.10622663543836E-15,7.,-7.50555349946514));
#337=CARTESIAN_POINT('',(8.13107683022429E-16,7.5,-6.6395280956807));
#338=CARTESIAN_POINT('',(-6.5,7.,-3.75277674973257));
#339=CARTESIAN_POINT('Ctrl Pts',(-6.5,7.,-3.75277674973257));
#340=CARTESIAN_POINT('Ctrl Pts',(-3.25,8.08333333333333,-5.62916512459885));
#341=CARTESIAN_POINT('Ctrl Pts',(-6.27517361744654E-15,7.,-7.50555349946514));
#342=CARTESIAN_POINT('',(-6.5,7.,3.75277674973257));
#343=CARTESIAN_POINT('Ctrl Pts',(-6.5,7.,3.75277674973257));
#344=CARTESIAN_POINT('Ctrl Pts',(-6.5,8.08333333333333,5.55111512312578E-16));
#345=CARTESIAN_POINT('Ctrl Pts',(-6.5,7.,-3.75277674973257));
#346=CARTESIAN_POINT('',(0.,7.,7.50555349946514));
#347=CARTESIAN_POINT('Ctrl Pts',(1.25503472348931E-15,7.,7.50555349946514));
#348=CARTESIAN_POINT('Ctrl Pts',(-3.25,8.08333333333333,5.62916512459885));
#349=CARTESIAN_POINT('Ctrl Pts',(-6.5,7.,3.75277674973257));
#350=CARTESIAN_POINT('',(6.50000000000001,7.,3.75277674973256));
#351=CARTESIAN_POINT('Ctrl Pts',(6.50000000000001,7.,3.75277674973256));
#352=CARTESIAN_POINT('Ctrl Pts',(3.25,8.08333333333334,5.62916512459885));
#353=CARTESIAN_POINT('Ctrl Pts',(-4.39262153221258E-15,7.,7.50555349946514));
#354=CARTESIAN_POINT('',(6.5,7.,-3.75277674973257));
#355=CARTESIAN_POINT('Ctrl Pts',(6.5,7.,-3.75277674973258));
#356=CARTESIAN_POINT('Ctrl Pts',(6.5,8.08333333333333,-4.99600361081321E-15));
#357=CARTESIAN_POINT('Ctrl Pts',(6.5,7.,3.75277674973257));
#358=CARTESIAN_POINT('Ctrl Pts',(-5.64765625570188E-15,7.,-7.50555349946514));
#359=CARTESIAN_POINT('Ctrl Pts',(3.25,8.08333333333333,-5.62916512459885));
#360=CARTESIAN_POINT('Ctrl Pts',(6.5,7.,-3.75277674973257));
#361=CARTESIAN_POINT('Origin',(6.5,8.,3.75277674973256));
#362=CARTESIAN_POINT('',(6.50000000000001,2.50235952159651,3.75277674973257));
#363=CARTESIAN_POINT('',(6.5,8.,3.75277674973256));
#364=CARTESIAN_POINT('',(6.49999999999999,2.50235952159651,-3.75277674973257));
#365=CARTESIAN_POINT('Ctrl Pts',(6.5,2.50235952159651,-3.75277674973265));
#366=CARTESIAN_POINT('Ctrl Pts',(6.5,3.0051362713291,-6.75296680211548E-15));
#367=CARTESIAN_POINT('Ctrl Pts',(6.5,2.50235952159651,3.75277674973264));
#368=CARTESIAN_POINT('',(6.5,8.,-3.75277674973257));
#369=CARTESIAN_POINT('Origin',(-1.30477982768782E-15,8.,7.50555349946513));
#370=CARTESIAN_POINT('',(-2.58703055133079E-16,2.50235952159651,7.50555349946514));
#371=CARTESIAN_POINT('',(-1.30477982768782E-15,8.,7.50555349946513));
#372=CARTESIAN_POINT('Ctrl Pts',(6.50000000000007,2.50235952159651,3.75277674973252));
#373=CARTESIAN_POINT('Ctrl Pts',(3.25000000000001,3.0051362713291,5.62916512459885));
#374=CARTESIAN_POINT('Ctrl Pts',(-6.74953737297661E-14,2.50235952159651,
7.50555349946517));
#375=CARTESIAN_POINT('Origin',(-7.37940352216621E-16,4.,0.));
#376=CARTESIAN_POINT('',(3.3235,-3.5541052213633E-16,0.));
#377=CARTESIAN_POINT('',(-3.3235,-1.66533453693773E-15,-4.07011363696623E-16));
#378=CARTESIAN_POINT('Origin',(2.46519032881566E-31,-1.11022302462516E-15,
0.));
#379=CARTESIAN_POINT('Origin',(2.46519032881566E-31,-1.11022302462516E-15,
0.));
#380=CARTESIAN_POINT('',(-3.3235,8.,-4.07011363696623E-16));
#381=CARTESIAN_POINT('',(-3.3235,4.,-4.07011363696623E-16));
#382=CARTESIAN_POINT('',(3.3235,8.,0.));
#383=CARTESIAN_POINT('Origin',(-1.47588070443324E-15,8.,0.));
#384=CARTESIAN_POINT('Origin',(-1.47588070443324E-15,8.,0.));
#385=CARTESIAN_POINT('Origin',(-6.5,8.,3.75277674973257));
#386=CARTESIAN_POINT('',(-6.5,2.50235952159651,3.75277674973257));
#387=CARTESIAN_POINT('',(-6.5,8.,3.75277674973257));
#388=CARTESIAN_POINT('Ctrl Pts',(4.47995425115857E-14,2.50235952159651,
7.50555349946516));
#389=CARTESIAN_POINT('Ctrl Pts',(-3.25000000000001,3.00513627132909,5.62916512459885));
#390=CARTESIAN_POINT('Ctrl Pts',(-6.50000000000005,2.50235952159651,3.75277674973254));
#391=CARTESIAN_POINT('Origin',(6.5,8.,-3.75277674973257));
#392=CARTESIAN_POINT('',(-3.9647498909837E-15,2.50235952159651,-7.50555349946514));
#393=CARTESIAN_POINT('Ctrl Pts',(-5.20201025869649E-14,2.50235952159651,
-7.50555349946516));
#394=CARTESIAN_POINT('Ctrl Pts',(3.24999999999999,3.00513627132909,-5.62916512459886));
#395=CARTESIAN_POINT('Ctrl Pts',(6.50000000000005,2.50235952159651,-3.75277674973254));
#396=CARTESIAN_POINT('',(-5.01082666353844E-15,8.,-7.50555349946514));
#397=CARTESIAN_POINT('Origin',(-5.01082666353844E-15,8.,-7.50555349946514));
#398=CARTESIAN_POINT('',(-6.49999999999999,2.50235952159651,-3.75277674973256));
#399=CARTESIAN_POINT('Ctrl Pts',(-6.50000000000005,2.50235952159651,-3.75277674973254));
#400=CARTESIAN_POINT('Ctrl Pts',(-3.25,3.00513627132909,-5.62916512459886));
#401=CARTESIAN_POINT('Ctrl Pts',(4.16251279181906E-14,2.50235952159651,
-7.50555349946517));
#402=CARTESIAN_POINT('',(-6.5,8.,-3.75277674973257));
#403=CARTESIAN_POINT('Origin',(-6.5,8.,-3.75277674973257));
#404=CARTESIAN_POINT('',(-6.5,2.77179676972449,-1.04208058333746E-15));
#405=CARTESIAN_POINT('Ctrl Pts',(-6.5,2.77179676972449,-1.28814074722914E-15));
#406=CARTESIAN_POINT('Ctrl Pts',(-6.5,2.77179676972449,-1.74166975080232));
#407=CARTESIAN_POINT('Ctrl Pts',(-6.5,2.50235952159651,-3.75277674973261));
#408=CARTESIAN_POINT('Ctrl Pts',(-6.5,2.50235952159651,3.75277674973261));
#409=CARTESIAN_POINT('Ctrl Pts',(-6.5,2.77179676972449,1.74166975080232));
#410=CARTESIAN_POINT('Ctrl Pts',(-6.5,2.77179676972449,-1.28814074722914E-15));
#411=CARTESIAN_POINT('Origin',(-1.38777878078145E-15,8.,-5.55111512312578E-16));
#412=CARTESIAN_POINT('Origin',(-5.73145959080466E-16,3.10673326026339,0.));
#413=CARTESIAN_POINT('',(10.5,1.7,0.));
#414=CARTESIAN_POINT('',(-10.5,1.7,-1.28587913910472E-15));
#415=CARTESIAN_POINT('Origin',(-3.13624649692064E-16,1.7,0.));
#416=CARTESIAN_POINT('Origin',(-3.13624649692064E-16,1.7,0.));
#417=CARTESIAN_POINT('',(-5.25,3.10673326026339,-6.42939569552361E-16));
#418=CARTESIAN_POINT('Origin',(-1.56812324846032E-16,0.849999999999998,
0.));
#419=CARTESIAN_POINT('',(10.5,0.,0.));
#420=CARTESIAN_POINT('',(-10.5,-3.88578058618805E-15,-1.28587913910472E-15));
#421=CARTESIAN_POINT('Origin',(4.80624367441453E-31,-1.93709342456863E-15,
0.));
#422=CARTESIAN_POINT('Origin',(4.80624367441453E-31,-1.93709342456863E-15,
0.));
#423=CARTESIAN_POINT('',(-10.5,0.849999999999998,-1.28587913910472E-15));
#424=CARTESIAN_POINT('Origin',(5.25,0.,0.));
#425=UNCERTAINTY_MEASURE_WITH_UNIT(LENGTH_MEASURE(0.01),#429,
'DISTANCE_ACCURACY_VALUE',
'Maximum model space distance between geometric entities at asserted c
onnectivities');
#426=UNCERTAINTY_MEASURE_WITH_UNIT(LENGTH_MEASURE(0.01),#429,
'DISTANCE_ACCURACY_VALUE',
'Maximum model space distance between geometric entities at asserted c
onnectivities');
#427=(
GEOMETRIC_REPRESENTATION_CONTEXT(3)
GLOBAL_UNCERTAINTY_ASSIGNED_CONTEXT((#425))
GLOBAL_UNIT_ASSIGNED_CONTEXT((#429,#431,#432))
REPRESENTATION_CONTEXT('','3D')
);
#428=(
GEOMETRIC_REPRESENTATION_CONTEXT(3)
GLOBAL_UNCERTAINTY_ASSIGNED_CONTEXT((#426))
GLOBAL_UNIT_ASSIGNED_CONTEXT((#429,#431,#432))
REPRESENTATION_CONTEXT('','3D')
);
#429=(
LENGTH_UNIT()
NAMED_UNIT(*)
SI_UNIT(.MILLI.,.METRE.)
);
#430=(
LENGTH_UNIT()
NAMED_UNIT(*)
SI_UNIT(.CENTI.,.METRE.)
);
#431=(
NAMED_UNIT(*)
PLANE_ANGLE_UNIT()
SI_UNIT($,.RADIAN.)
);
#432=(
NAMED_UNIT(*)
SI_UNIT($,.STERADIAN.)
SOLID_ANGLE_UNIT()
);
#433=SHAPE_DEFINITION_REPRESENTATION(#434,#435);
#434=PRODUCT_DEFINITION_SHAPE('',$,#437);
#435=SHAPE_REPRESENTATION('',(#251),#427);
#436=PRODUCT_DEFINITION_CONTEXT('part definition',#441,'design');
#437=PRODUCT_DEFINITION('210810','210810-ZP',#438,#436);
#438=PRODUCT_DEFINITION_FORMATION('',$,#443);
#439=PRODUCT_RELATED_PRODUCT_CATEGORY('210810-ZP','210810-ZP',(#443));
#440=APPLICATION_PROTOCOL_DEFINITION('international standard',
'automotive_design',2009,#441);
#441=APPLICATION_CONTEXT(
'Core Data for Automotive Mechanical Design Process');
#442=PRODUCT_CONTEXT('part definition',#441,'mechanical');
#443=PRODUCT('210810','210810-ZP','Matice s p\X2\015900ED\X0\rubou',(#442));
#444=PRESENTATION_STYLE_ASSIGNMENT((#445));
#445=SURFACE_STYLE_USAGE(.BOTH.,#448);
#446=SURFACE_STYLE_RENDERING_WITH_PROPERTIES($,#452,(#447));
#447=SURFACE_STYLE_TRANSPARENT(0.);
#448=SURFACE_SIDE_STYLE('',(#449,#446));
#449=SURFACE_STYLE_FILL_AREA(#450);
#450=FILL_AREA_STYLE('',(#451));
#451=FILL_AREA_STYLE_COLOUR('',#452);
#452=COLOUR_RGB('',0.501960784313725,0.501960784313725,0.501960784313725);
ENDSEC;
END-ISO-10303-21;
