ISO-10303-21;
HEADER;
/* Generated by software containing ST-Developer
 * from STEP Tools, Inc. (www.steptools.com) 
 */

FILE_DESCRIPTION(
/* description */ ('Matice 30'),
/* implementation_level */ '2;1');

FILE_NAME(
/* name */ 
'C:\\InventorWorking - Vault\\Projects\\Alutec\\ZWYMIAROWANE PRODUKTY\\
UZUPELNIENIE BRAKOW\\ELEMENTY ZLACZNE\\210650.stp',
/* time_stamp */ '2022-09-20T13:08:43+02:00',
/* author */ ('aluteckkpl_tw'),
/* organization */ (''),
/* preprocessor_version */ 'ST-DEVELOPER v18.1',
/* originating_system */ 'Autodesk Inventor 2021',
/* authorisation */ '');

FILE_SCHEMA (('AUTOMOTIVE_DESIGN { 1 0 10303 214 3 1 1 }'));
ENDSEC;

DATA;
#10=MECHANICAL_DESIGN_GEOMETRIC_PRESENTATION_REPRESENTATION('',(#13),#282);
#11=SHAPE_REPRESENTATION_RELATIONSHIP('SRR','None',#289,#12);
#12=ADVANCED_BREP_SHAPE_REPRESENTATION('',(#14),#281);
#13=STYLED_ITEM('',(#298),#14);
#14=MANIFOLD_SOLID_BREP('Solid1',#155);
#15=FACE_BOUND('',#44,.T.);
#16=FACE_BOUND('',#46,.T.);
#17=PLANE('',#182);
#18=PLANE('',#183);
#19=PLANE('',#184);
#20=PLANE('',#185);
#21=PLANE('',#186);
#22=PLANE('',#187);
#23=(
BOUNDED_CURVE()
B_SPLINE_CURVE(2,(#243,#244,#245),.UNSPECIFIED.,.F.,.F.)
B_SPLINE_CURVE_WITH_KNOTS((3,3),(0.0406684407195014,0.55113519212302),
 .UNSPECIFIED.)
CURVE()
GEOMETRIC_REPRESENTATION_ITEM()
RATIONAL_B_SPLINE_CURVE((1.03553390593274,1.24999999999866,1.25))
REPRESENTATION_ITEM('')
);
#24=(
BOUNDED_CURVE()
B_SPLINE_CURVE(2,(#247,#248,#249),.UNSPECIFIED.,.F.,.F.)
B_SPLINE_CURVE_WITH_KNOTS((3,3),(0.0406684407195014,1.06160194353057),
 .UNSPECIFIED.)
CURVE()
GEOMETRIC_REPRESENTATION_ITEM()
RATIONAL_B_SPLINE_CURVE((1.03553390593274,1.46446609406627,1.03553390593472))
REPRESENTATION_ITEM('')
);
#25=(
BOUNDED_CURVE()
B_SPLINE_CURVE(2,(#251,#252,#253),.UNSPECIFIED.,.F.,.F.)
B_SPLINE_CURVE_WITH_KNOTS((3,3),(0.0406684407195014,1.06160194353057),
 .UNSPECIFIED.)
CURVE()
GEOMETRIC_REPRESENTATION_ITEM()
RATIONAL_B_SPLINE_CURVE((1.03553390593274,1.46446609406627,1.03553390593472))
REPRESENTATION_ITEM('')
);
#26=(
BOUNDED_CURVE()
B_SPLINE_CURVE(2,(#255,#256,#257),.UNSPECIFIED.,.F.,.F.)
B_SPLINE_CURVE_WITH_KNOTS((3,3),(0.0406684407195014,1.06160194353057),
 .UNSPECIFIED.)
CURVE()
GEOMETRIC_REPRESENTATION_ITEM()
RATIONAL_B_SPLINE_CURVE((1.03553390593274,1.46446609406627,1.03553390593472))
REPRESENTATION_ITEM('')
);
#27=(
BOUNDED_CURVE()
B_SPLINE_CURVE(2,(#258,#259,#260),.UNSPECIFIED.,.F.,.F.)
B_SPLINE_CURVE_WITH_KNOTS((3,3),(0.55113519212302,1.06160194353057),
 .UNSPECIFIED.)
CURVE()
GEOMETRIC_REPRESENTATION_ITEM()
RATIONAL_B_SPLINE_CURVE((1.25,1.25000000000134,1.03553390593472))
REPRESENTATION_ITEM('')
);
#28=CONICAL_SURFACE('',#179,4.,0.785398163397448);
#29=FACE_OUTER_BOUND('',#37,.T.);
#30=FACE_OUTER_BOUND('',#38,.T.);
#31=FACE_OUTER_BOUND('',#39,.T.);
#32=FACE_OUTER_BOUND('',#40,.T.);
#33=FACE_OUTER_BOUND('',#41,.T.);
#34=FACE_OUTER_BOUND('',#42,.T.);
#35=FACE_OUTER_BOUND('',#43,.T.);
#36=FACE_OUTER_BOUND('',#45,.T.);
#37=EDGE_LOOP('',(#106,#107,#108,#109,#110));
#38=EDGE_LOOP('',(#111,#112,#113,#114,#115,#116,#117,#118,#119));
#39=EDGE_LOOP('',(#120,#121,#122,#123,#124));
#40=EDGE_LOOP('',(#125,#126,#127,#128));
#41=EDGE_LOOP('',(#129,#130,#131,#132));
#42=EDGE_LOOP('',(#133,#134,#135,#136));
#43=EDGE_LOOP('',(#137,#138));
#44=EDGE_LOOP('',(#139,#140));
#45=EDGE_LOOP('',(#141,#142,#143,#144));
#46=EDGE_LOOP('',(#145));
#47=LINE('',#233,#57);
#48=LINE('',#241,#58);
#49=LINE('',#263,#59);
#50=LINE('',#265,#60);
#51=LINE('',#266,#61);
#52=LINE('',#269,#62);
#53=LINE('',#270,#63);
#54=LINE('',#273,#64);
#55=LINE('',#274,#65);
#56=LINE('',#276,#66);
#57=VECTOR('',#196,2.067);
#58=VECTOR('',#205,4.);
#59=VECTOR('',#208,10.);
#60=VECTOR('',#209,10.);
#61=VECTOR('',#210,10.);
#62=VECTOR('',#213,10.);
#63=VECTOR('',#214,10.);
#64=VECTOR('',#217,10.);
#65=VECTOR('',#218,10.);
#66=VECTOR('',#221,10.);
#67=CIRCLE('',#176,2.067);
#68=CIRCLE('',#177,2.067);
#69=CIRCLE('',#178,2.067);
#70=CIRCLE('',#180,3.5);
#71=CIRCLE('',#181,3.5);
#72=VERTEX_POINT('',#228);
#73=VERTEX_POINT('',#229);
#74=VERTEX_POINT('',#232);
#75=VERTEX_POINT('',#236);
#76=VERTEX_POINT('',#237);
#77=VERTEX_POINT('',#240);
#78=VERTEX_POINT('',#242);
#79=VERTEX_POINT('',#246);
#80=VERTEX_POINT('',#250);
#81=VERTEX_POINT('',#254);
#82=VERTEX_POINT('',#262);
#83=VERTEX_POINT('',#264);
#84=VERTEX_POINT('',#268);
#85=VERTEX_POINT('',#272);
#86=EDGE_CURVE('',#72,#73,#67,.T.);
#87=EDGE_CURVE('',#73,#72,#68,.T.);
#88=EDGE_CURVE('',#73,#74,#47,.T.);
#89=EDGE_CURVE('',#74,#74,#69,.T.);
#90=EDGE_CURVE('',#75,#76,#70,.T.);
#91=EDGE_CURVE('',#76,#75,#71,.T.);
#92=EDGE_CURVE('',#76,#77,#48,.T.);
#93=EDGE_CURVE('',#78,#77,#23,.T.);
#94=EDGE_CURVE('',#79,#78,#24,.T.);
#95=EDGE_CURVE('',#80,#79,#25,.T.);
#96=EDGE_CURVE('',#81,#80,#26,.T.);
#97=EDGE_CURVE('',#77,#81,#27,.T.);
#98=EDGE_CURVE('',#82,#81,#49,.T.);
#99=EDGE_CURVE('',#83,#82,#50,.T.);
#100=EDGE_CURVE('',#83,#78,#51,.T.);
#101=EDGE_CURVE('',#84,#80,#52,.T.);
#102=EDGE_CURVE('',#82,#84,#53,.T.);
#103=EDGE_CURVE('',#85,#79,#54,.T.);
#104=EDGE_CURVE('',#84,#85,#55,.T.);
#105=EDGE_CURVE('',#85,#83,#56,.T.);
#106=ORIENTED_EDGE('',*,*,#86,.F.);
#107=ORIENTED_EDGE('',*,*,#87,.F.);
#108=ORIENTED_EDGE('',*,*,#88,.T.);
#109=ORIENTED_EDGE('',*,*,#89,.F.);
#110=ORIENTED_EDGE('',*,*,#88,.F.);
#111=ORIENTED_EDGE('',*,*,#90,.F.);
#112=ORIENTED_EDGE('',*,*,#91,.F.);
#113=ORIENTED_EDGE('',*,*,#92,.T.);
#114=ORIENTED_EDGE('',*,*,#93,.F.);
#115=ORIENTED_EDGE('',*,*,#94,.F.);
#116=ORIENTED_EDGE('',*,*,#95,.F.);
#117=ORIENTED_EDGE('',*,*,#96,.F.);
#118=ORIENTED_EDGE('',*,*,#97,.F.);
#119=ORIENTED_EDGE('',*,*,#92,.F.);
#120=ORIENTED_EDGE('',*,*,#93,.T.);
#121=ORIENTED_EDGE('',*,*,#97,.T.);
#122=ORIENTED_EDGE('',*,*,#98,.F.);
#123=ORIENTED_EDGE('',*,*,#99,.F.);
#124=ORIENTED_EDGE('',*,*,#100,.T.);
#125=ORIENTED_EDGE('',*,*,#96,.T.);
#126=ORIENTED_EDGE('',*,*,#101,.F.);
#127=ORIENTED_EDGE('',*,*,#102,.F.);
#128=ORIENTED_EDGE('',*,*,#98,.T.);
#129=ORIENTED_EDGE('',*,*,#95,.T.);
#130=ORIENTED_EDGE('',*,*,#103,.F.);
#131=ORIENTED_EDGE('',*,*,#104,.F.);
#132=ORIENTED_EDGE('',*,*,#101,.T.);
#133=ORIENTED_EDGE('',*,*,#94,.T.);
#134=ORIENTED_EDGE('',*,*,#100,.F.);
#135=ORIENTED_EDGE('',*,*,#105,.F.);
#136=ORIENTED_EDGE('',*,*,#103,.T.);
#137=ORIENTED_EDGE('',*,*,#90,.T.);
#138=ORIENTED_EDGE('',*,*,#91,.T.);
#139=ORIENTED_EDGE('',*,*,#86,.T.);
#140=ORIENTED_EDGE('',*,*,#87,.T.);
#141=ORIENTED_EDGE('',*,*,#102,.T.);
#142=ORIENTED_EDGE('',*,*,#104,.T.);
#143=ORIENTED_EDGE('',*,*,#105,.T.);
#144=ORIENTED_EDGE('',*,*,#99,.T.);
#145=ORIENTED_EDGE('',*,*,#89,.T.);
#146=CYLINDRICAL_SURFACE('',#175,2.067);
#147=ADVANCED_FACE('',(#29),#146,.F.);
#148=ADVANCED_FACE('',(#30),#28,.T.);
#149=ADVANCED_FACE('',(#31),#17,.T.);
#150=ADVANCED_FACE('',(#32),#18,.T.);
#151=ADVANCED_FACE('',(#33),#19,.T.);
#152=ADVANCED_FACE('',(#34),#20,.T.);
#153=ADVANCED_FACE('',(#35,#15),#21,.T.);
#154=ADVANCED_FACE('',(#36,#16),#22,.F.);
#155=CLOSED_SHELL('',(#147,#148,#149,#150,#151,#152,#153,#154));
#156=DERIVED_UNIT_ELEMENT(#158,1.);
#157=DERIVED_UNIT_ELEMENT(#284,3.);
#158=(
MASS_UNIT()
NAMED_UNIT(*)
SI_UNIT($,.GRAM.)
);
#159=DERIVED_UNIT((#156,#157));
#160=MEASURE_REPRESENTATION_ITEM('density measure',
POSITIVE_RATIO_MEASURE(7.85),#159);
#161=PROPERTY_DEFINITION_REPRESENTATION(#166,#163);
#162=PROPERTY_DEFINITION_REPRESENTATION(#167,#164);
#163=REPRESENTATION('material name',(#165),#281);
#164=REPRESENTATION('density',(#160),#281);
#165=DESCRIPTIVE_REPRESENTATION_ITEM('Ocel zinkovan\X\E1',
'Ocel zinkovan\X\E1');
#166=PROPERTY_DEFINITION('material property','material name',#291);
#167=PROPERTY_DEFINITION('material property','density of part',#291);
#168=DATE_TIME_ROLE('creation_date');
#169=APPLIED_DATE_AND_TIME_ASSIGNMENT(#170,#168,(#291));
#170=DATE_AND_TIME(#171,#172);
#171=CALENDAR_DATE(2018,12,10);
#172=LOCAL_TIME(0,0,0.,#173);
#173=COORDINATED_UNIVERSAL_TIME_OFFSET(0,0,.BEHIND.);
#174=AXIS2_PLACEMENT_3D('placement',#226,#188,#189);
#175=AXIS2_PLACEMENT_3D('',#227,#190,#191);
#176=AXIS2_PLACEMENT_3D('',#230,#192,#193);
#177=AXIS2_PLACEMENT_3D('',#231,#194,#195);
#178=AXIS2_PLACEMENT_3D('',#234,#197,#198);
#179=AXIS2_PLACEMENT_3D('',#235,#199,#200);
#180=AXIS2_PLACEMENT_3D('',#238,#201,#202);
#181=AXIS2_PLACEMENT_3D('',#239,#203,#204);
#182=AXIS2_PLACEMENT_3D('',#261,#206,#207);
#183=AXIS2_PLACEMENT_3D('',#267,#211,#212);
#184=AXIS2_PLACEMENT_3D('',#271,#215,#216);
#185=AXIS2_PLACEMENT_3D('',#275,#219,#220);
#186=AXIS2_PLACEMENT_3D('',#277,#222,#223);
#187=AXIS2_PLACEMENT_3D('',#278,#224,#225);
#188=DIRECTION('axis',(0.,0.,1.));
#189=DIRECTION('refdir',(1.,0.,0.));
#190=DIRECTION('center_axis',(1.,0.,0.));
#191=DIRECTION('ref_axis',(0.,0.,-1.));
#192=DIRECTION('center_axis',(-1.,0.,0.));
#193=DIRECTION('ref_axis',(0.,0.,-1.));
#194=DIRECTION('center_axis',(-1.,0.,0.));
#195=DIRECTION('ref_axis',(0.,0.,-1.));
#196=DIRECTION('',(-1.,0.,0.));
#197=DIRECTION('center_axis',(1.,0.,0.));
#198=DIRECTION('ref_axis',(0.,0.,-1.));
#199=DIRECTION('center_axis',(-1.,0.,0.));
#200=DIRECTION('ref_axis',(0.,1.,0.));
#201=DIRECTION('center_axis',(1.,0.,0.));
#202=DIRECTION('ref_axis',(0.,1.,0.));
#203=DIRECTION('center_axis',(1.,0.,0.));
#204=DIRECTION('ref_axis',(0.,1.,0.));
#205=DIRECTION('',(-0.707106781186548,-0.707106781186547,8.65956056235493E-17));
#206=DIRECTION('center_axis',(0.,-1.,0.));
#207=DIRECTION('ref_axis',(0.,0.,-1.));
#208=DIRECTION('',(1.,0.,0.));
#209=DIRECTION('',(0.,0.,1.));
#210=DIRECTION('',(1.,0.,0.));
#211=DIRECTION('center_axis',(0.,0.,1.));
#212=DIRECTION('ref_axis',(1.,0.,0.));
#213=DIRECTION('',(1.,0.,0.));
#214=DIRECTION('',(0.,1.,0.));
#215=DIRECTION('center_axis',(0.,1.,0.));
#216=DIRECTION('ref_axis',(0.,0.,1.));
#217=DIRECTION('',(1.,0.,0.));
#218=DIRECTION('',(0.,0.,-1.));
#219=DIRECTION('center_axis',(0.,0.,-1.));
#220=DIRECTION('ref_axis',(-1.,0.,0.));
#221=DIRECTION('',(0.,-1.,0.));
#222=DIRECTION('center_axis',(1.,0.,0.));
#223=DIRECTION('ref_axis',(0.,0.,-1.));
#224=DIRECTION('center_axis',(1.,0.,0.));
#225=DIRECTION('ref_axis',(0.,0.,-1.));
#226=CARTESIAN_POINT('',(0.,0.,0.));
#227=CARTESIAN_POINT('Origin',(-9.44043497323221,0.,0.));
#228=CARTESIAN_POINT('',(4.,0.,-2.067));
#229=CARTESIAN_POINT('',(4.,-2.53134493383758E-16,2.067));
#230=CARTESIAN_POINT('Origin',(4.,0.,0.));
#231=CARTESIAN_POINT('Origin',(4.,0.,0.));
#232=CARTESIAN_POINT('',(0.,-2.53134493383758E-16,2.067));
#233=CARTESIAN_POINT('',(-9.44043497323221,-2.53134493383758E-16,2.067));
#234=CARTESIAN_POINT('Origin',(0.,0.,0.));
#235=CARTESIAN_POINT('Origin',(3.5,0.,0.));
#236=CARTESIAN_POINT('',(4.,3.5,0.));
#237=CARTESIAN_POINT('',(4.,-3.5,4.28626379701574E-16));
#238=CARTESIAN_POINT('Origin',(4.,0.,0.));
#239=CARTESIAN_POINT('Origin',(4.,0.,0.));
#240=CARTESIAN_POINT('',(2.9999999999835,-4.5,2.20034378576897E-16));
#241=CARTESIAN_POINT('',(3.5,-4.,4.89858719658941E-16));
#242=CARTESIAN_POINT('',(1.13603896932107,-4.5,-4.5));
#243=CARTESIAN_POINT('Ctrl Pts',(1.13603896932107,-4.5,-4.5));
#244=CARTESIAN_POINT('Ctrl Pts',(2.99999999997814,-4.5,-1.86396103067536));
#245=CARTESIAN_POINT('Ctrl Pts',(2.9999999999835,-4.5,-1.11022302462516E-16));
#246=CARTESIAN_POINT('',(1.13603896932107,4.5,-4.5));
#247=CARTESIAN_POINT('Ctrl Pts',(1.13603896932107,4.5,-4.5));
#248=CARTESIAN_POINT('Ctrl Pts',(4.31801948463451,-2.20840012943313E-11,
-4.5));
#249=CARTESIAN_POINT('Ctrl Pts',(1.13603896932107,-4.5,-4.5));
#250=CARTESIAN_POINT('',(1.13603896932107,4.5,4.5));
#251=CARTESIAN_POINT('Ctrl Pts',(1.13603896932107,4.5,4.5));
#252=CARTESIAN_POINT('Ctrl Pts',(4.31801948463452,4.5,-2.20806706252574E-11));
#253=CARTESIAN_POINT('Ctrl Pts',(1.13603896932107,4.5,-4.5));
#254=CARTESIAN_POINT('',(1.13603896932107,-4.5,4.5));
#255=CARTESIAN_POINT('Ctrl Pts',(1.13603896932107,-4.5,4.5));
#256=CARTESIAN_POINT('Ctrl Pts',(4.31801948463452,2.20751195101343E-11,
4.5));
#257=CARTESIAN_POINT('Ctrl Pts',(1.13603896932107,4.5,4.5));
#258=CARTESIAN_POINT('Ctrl Pts',(2.9999999999835,-4.5,-1.11022302462516E-16));
#259=CARTESIAN_POINT('Ctrl Pts',(2.99999999998886,-4.5,1.86396103068607));
#260=CARTESIAN_POINT('Ctrl Pts',(1.13603896932107,-4.5,4.5));
#261=CARTESIAN_POINT('Origin',(0.,-4.5,-4.5));
#262=CARTESIAN_POINT('',(0.,-4.5,4.5));
#263=CARTESIAN_POINT('',(0.,-4.5,4.5));
#264=CARTESIAN_POINT('',(0.,-4.5,-4.5));
#265=CARTESIAN_POINT('',(0.,-4.5,-4.5));
#266=CARTESIAN_POINT('',(0.,-4.5,-4.5));
#267=CARTESIAN_POINT('Origin',(0.,-4.5,4.5));
#268=CARTESIAN_POINT('',(0.,4.5,4.5));
#269=CARTESIAN_POINT('',(0.,4.5,4.5));
#270=CARTESIAN_POINT('',(0.,-4.5,4.5));
#271=CARTESIAN_POINT('Origin',(0.,4.5,4.5));
#272=CARTESIAN_POINT('',(0.,4.5,-4.5));
#273=CARTESIAN_POINT('',(0.,4.5,-4.5));
#274=CARTESIAN_POINT('',(0.,4.5,4.5));
#275=CARTESIAN_POINT('Origin',(0.,4.5,-4.5));
#276=CARTESIAN_POINT('',(0.,4.5,-4.5));
#277=CARTESIAN_POINT('Origin',(4.,-1.38777878078145E-16,-3.78485122031303E-16));
#278=CARTESIAN_POINT('Origin',(0.,-1.38777878078145E-16,-3.65868951296927E-16));
#279=UNCERTAINTY_MEASURE_WITH_UNIT(LENGTH_MEASURE(0.01),#283,
'DISTANCE_ACCURACY_VALUE',
'Maximum model space distance between geometric entities at asserted c
onnectivities');
#280=UNCERTAINTY_MEASURE_WITH_UNIT(LENGTH_MEASURE(0.01),#283,
'DISTANCE_ACCURACY_VALUE',
'Maximum model space distance between geometric entities at asserted c
onnectivities');
#281=(
GEOMETRIC_REPRESENTATION_CONTEXT(3)
GLOBAL_UNCERTAINTY_ASSIGNED_CONTEXT((#279))
GLOBAL_UNIT_ASSIGNED_CONTEXT((#283,#285,#286))
REPRESENTATION_CONTEXT('','3D')
);
#282=(
GEOMETRIC_REPRESENTATION_CONTEXT(3)
GLOBAL_UNCERTAINTY_ASSIGNED_CONTEXT((#280))
GLOBAL_UNIT_ASSIGNED_CONTEXT((#283,#285,#286))
REPRESENTATION_CONTEXT('','3D')
);
#283=(
LENGTH_UNIT()
NAMED_UNIT(*)
SI_UNIT(.MILLI.,.METRE.)
);
#284=(
LENGTH_UNIT()
NAMED_UNIT(*)
SI_UNIT(.CENTI.,.METRE.)
);
#285=(
NAMED_UNIT(*)
PLANE_ANGLE_UNIT()
SI_UNIT($,.RADIAN.)
);
#286=(
NAMED_UNIT(*)
SI_UNIT($,.STERADIAN.)
SOLID_ANGLE_UNIT()
);
#287=SHAPE_DEFINITION_REPRESENTATION(#288,#289);
#288=PRODUCT_DEFINITION_SHAPE('',$,#291);
#289=SHAPE_REPRESENTATION('',(#174),#281);
#290=PRODUCT_DEFINITION_CONTEXT('part definition',#295,'design');
#291=PRODUCT_DEFINITION('210650-ZP','210650-ZP',#292,#290);
#292=PRODUCT_DEFINITION_FORMATION('',$,#297);
#293=PRODUCT_RELATED_PRODUCT_CATEGORY('210650-ZP','210650-ZP',(#297));
#294=APPLICATION_PROTOCOL_DEFINITION('international standard',
'automotive_design',2009,#295);
#295=APPLICATION_CONTEXT(
'Core Data for Automotive Mechanical Design Process');
#296=PRODUCT_CONTEXT('part definition',#295,'mechanical');
#297=PRODUCT('210650-ZP','210650-ZP','Matice 30',(#296));
#298=PRESENTATION_STYLE_ASSIGNMENT((#299));
#299=SURFACE_STYLE_USAGE(.BOTH.,#302);
#300=SURFACE_STYLE_RENDERING_WITH_PROPERTIES($,#306,(#301));
#301=SURFACE_STYLE_TRANSPARENT(0.);
#302=SURFACE_SIDE_STYLE('',(#303,#300));
#303=SURFACE_STYLE_FILL_AREA(#304);
#304=FILL_AREA_STYLE('',(#305));
#305=FILL_AREA_STYLE_COLOUR('',#306);
#306=COLOUR_RGB('',0.501960784313725,0.501960784313725,0.501960784313725);
ENDSEC;
END-ISO-10303-21;
