ISO-10303-21;
HEADER;
/* Generated by software containing ST-Developer
 * from STEP Tools, Inc. (www.steptools.com) 
 */

FILE_DESCRIPTION(
/* description */ ('Areta\X2\010D\X0\n\X\ED vlo\X2\017E\X0\ka'),
/* implementation_level */ '2;1');

FILE_NAME(
/* name */ 'D:\\Work\\Zakazky\\2013\\AlutecKK\\stp\\210615.stp',
/* time_stamp */ '2013-12-08T11:09:49+01:00',
/* author */ ('PC'),
/* organization */ (''),
/* preprocessor_version */ 'ST-DEVELOPER v15.2',
/* originating_system */ 'Autodesk Inventor 2014',
/* authorisation */ '');

FILE_SCHEMA (('AUTOMOTIVE_DESIGN { 1 0 10303 214 3 1 1 }'));
ENDSEC;

DATA;
#10=SHAPE_REPRESENTATION_RELATIONSHIP('SRR','None',#591,#11);
#11=ADVANCED_BREP_SHAPE_REPRESENTATION($,(#363),#582);
#12=STYLED_ITEM($,(#599),#363);
#13=LINE($,#494,#57);
#14=LINE($,#496,#58);
#15=LINE($,#498,#59);
#16=LINE($,#500,#60);
#17=LINE($,#501,#61);
#18=LINE($,#504,#62);
#19=LINE($,#505,#63);
#20=LINE($,#509,#64);
#21=LINE($,#511,#65);
#22=LINE($,#513,#66);
#23=LINE($,#514,#67);
#24=LINE($,#518,#68);
#25=LINE($,#520,#69);
#26=LINE($,#522,#70);
#27=LINE($,#523,#71);
#28=LINE($,#526,#72);
#29=LINE($,#528,#73);
#30=LINE($,#530,#74);
#31=LINE($,#532,#75);
#32=LINE($,#533,#76);
#33=LINE($,#535,#77);
#34=LINE($,#537,#78);
#35=LINE($,#539,#79);
#36=LINE($,#541,#80);
#37=LINE($,#542,#81);
#38=LINE($,#545,#82);
#39=LINE($,#546,#83);
#40=LINE($,#549,#84);
#41=LINE($,#550,#85);
#42=LINE($,#553,#86);
#43=LINE($,#554,#87);
#44=LINE($,#557,#88);
#45=LINE($,#558,#89);
#46=LINE($,#560,#90);
#47=LINE($,#562,#91);
#48=LINE($,#564,#92);
#49=LINE($,#566,#93);
#50=LINE($,#568,#94);
#51=LINE($,#569,#95);
#52=LINE($,#572,#96);
#53=LINE($,#573,#97);
#54=LINE($,#575,#98);
#55=LINE($,#576,#99);
#56=LINE($,#579,#100);
#57=VECTOR($,#404,12.5020008006406);
#58=VECTOR($,#405,4.24264068711929);
#59=VECTOR($,#406,30.);
#60=VECTOR($,#407,4.24264068711929);
#61=VECTOR($,#408,12.5020008006406);
#62=VECTOR($,#411,12.5020008006407);
#63=VECTOR($,#412,4.);
#64=VECTOR($,#415,5.);
#65=VECTOR($,#416,6.);
#66=VECTOR($,#417,5.);
#67=VECTOR($,#418,6.);
#68=VECTOR($,#421,5.);
#69=VECTOR($,#422,6.);
#70=VECTOR($,#423,5.);
#71=VECTOR($,#424,6.);
#72=VECTOR($,#427,10.);
#73=VECTOR($,#428,2.);
#74=VECTOR($,#429,30.);
#75=VECTOR($,#430,2.);
#76=VECTOR($,#431,10.);
#77=VECTOR($,#432,10.);
#78=VECTOR($,#433,2.);
#79=VECTOR($,#434,30.);
#80=VECTOR($,#435,2.);
#81=VECTOR($,#436,10.);
#82=VECTOR($,#439,5.);
#83=VECTOR($,#440,10.);
#84=VECTOR($,#443,10.);
#85=VECTOR($,#444,5.);
#86=VECTOR($,#447,5.);
#87=VECTOR($,#448,10.);
#88=VECTOR($,#451,10.);
#89=VECTOR($,#452,5.);
#90=VECTOR($,#455,6.);
#91=VECTOR($,#458,6.);
#92=VECTOR($,#461,4.5);
#93=VECTOR($,#462,4.5);
#94=VECTOR($,#463,4.24264068711928);
#95=VECTOR($,#464,4.);
#96=VECTOR($,#467,4.5);
#97=VECTOR($,#468,30.);
#98=VECTOR($,#471,12.5020008006407);
#99=VECTOR($,#472,4.24264068711928);
#100=VECTOR($,#477,4.5);
#101=PLANE($,#371);
#102=PLANE($,#372);
#103=PLANE($,#373);
#104=PLANE($,#374);
#105=PLANE($,#375);
#106=PLANE($,#376);
#107=PLANE($,#377);
#108=PLANE($,#378);
#109=PLANE($,#379);
#110=PLANE($,#380);
#111=PLANE($,#381);
#112=PLANE($,#382);
#113=PLANE($,#383);
#114=PLANE($,#384);
#115=PLANE($,#385);
#116=PLANE($,#386);
#117=PLANE($,#387);
#118=FACE_BOUND($,#139,.T.);
#119=FACE_BOUND($,#144,.T.);
#120=FACE_BOUND($,#145,.T.);
#121=FACE_OUTER_BOUND($,#138,.T.);
#122=FACE_OUTER_BOUND($,#140,.T.);
#123=FACE_OUTER_BOUND($,#141,.T.);
#124=FACE_OUTER_BOUND($,#142,.T.);
#125=FACE_OUTER_BOUND($,#143,.T.);
#126=FACE_OUTER_BOUND($,#146,.T.);
#127=FACE_OUTER_BOUND($,#147,.T.);
#128=FACE_OUTER_BOUND($,#148,.T.);
#129=FACE_OUTER_BOUND($,#149,.T.);
#130=FACE_OUTER_BOUND($,#150,.T.);
#131=FACE_OUTER_BOUND($,#151,.T.);
#132=FACE_OUTER_BOUND($,#152,.T.);
#133=FACE_OUTER_BOUND($,#153,.T.);
#134=FACE_OUTER_BOUND($,#154,.T.);
#135=FACE_OUTER_BOUND($,#155,.T.);
#136=FACE_OUTER_BOUND($,#156,.T.);
#137=FACE_OUTER_BOUND($,#157,.T.);
#138=EDGE_LOOP($,(#245,#246,#247,#248));
#139=EDGE_LOOP($,(#249));
#140=EDGE_LOOP($,(#250,#251,#252,#253,#254,#255));
#141=EDGE_LOOP($,(#256,#257,#258,#259));
#142=EDGE_LOOP($,(#260,#261,#262,#263));
#143=EDGE_LOOP($,(#264,#265,#266,#267));
#144=EDGE_LOOP($,(#268));
#145=EDGE_LOOP($,(#269,#270,#271,#272,#273,#274,#275,#276,#277,#278,#279,
#280));
#146=EDGE_LOOP($,(#281,#282,#283,#284));
#147=EDGE_LOOP($,(#285,#286,#287,#288));
#148=EDGE_LOOP($,(#289,#290,#291,#292));
#149=EDGE_LOOP($,(#293,#294,#295,#296));
#150=EDGE_LOOP($,(#297,#298,#299,#300));
#151=EDGE_LOOP($,(#301,#302,#303,#304));
#152=EDGE_LOOP($,(#305,#306,#307,#308,#309,#310,#311,#312,#313,#314));
#153=EDGE_LOOP($,(#315,#316,#317,#318));
#154=EDGE_LOOP($,(#319,#320,#321,#322,#323,#324));
#155=EDGE_LOOP($,(#325,#326,#327,#328));
#156=EDGE_LOOP($,(#329,#330,#331,#332));
#157=EDGE_LOOP($,(#333,#334,#335,#336,#337,#338,#339,#340,#341,#342));
#158=CIRCLE($,#367,3.2);
#159=CIRCLE($,#369,3.2);
#160=CIRCLE($,#370,3.2);
#161=ELLIPSE($,#366,4.52548339959391,3.2);
#162=ELLIPSE($,#368,4.5254833995939,3.2);
#163=VERTEX_POINT($,#482);
#164=VERTEX_POINT($,#483);
#165=VERTEX_POINT($,#485);
#166=VERTEX_POINT($,#487);
#167=VERTEX_POINT($,#490);
#168=VERTEX_POINT($,#493);
#169=VERTEX_POINT($,#495);
#170=VERTEX_POINT($,#497);
#171=VERTEX_POINT($,#499);
#172=VERTEX_POINT($,#503);
#173=VERTEX_POINT($,#507);
#174=VERTEX_POINT($,#508);
#175=VERTEX_POINT($,#510);
#176=VERTEX_POINT($,#512);
#177=VERTEX_POINT($,#516);
#178=VERTEX_POINT($,#517);
#179=VERTEX_POINT($,#519);
#180=VERTEX_POINT($,#521);
#181=VERTEX_POINT($,#525);
#182=VERTEX_POINT($,#527);
#183=VERTEX_POINT($,#529);
#184=VERTEX_POINT($,#531);
#185=VERTEX_POINT($,#534);
#186=VERTEX_POINT($,#536);
#187=VERTEX_POINT($,#538);
#188=VERTEX_POINT($,#540);
#189=VERTEX_POINT($,#544);
#190=VERTEX_POINT($,#548);
#191=VERTEX_POINT($,#552);
#192=VERTEX_POINT($,#556);
#193=VERTEX_POINT($,#565);
#194=VERTEX_POINT($,#567);
#195=VERTEX_POINT($,#571);
#196=EDGE_CURVE($,#163,#164,#161,.T.);
#197=EDGE_CURVE($,#165,#163,#158,.T.);
#198=EDGE_CURVE($,#166,#165,#162,.T.);
#199=EDGE_CURVE($,#164,#166,#159,.T.);
#200=EDGE_CURVE($,#167,#167,#160,.T.);
#201=EDGE_CURVE($,#168,#165,#13,.T.);
#202=EDGE_CURVE($,#168,#169,#14,.T.);
#203=EDGE_CURVE($,#169,#170,#15,.T.);
#204=EDGE_CURVE($,#170,#171,#16,.T.);
#205=EDGE_CURVE($,#166,#171,#17,.T.);
#206=EDGE_CURVE($,#172,#163,#18,.T.);
#207=EDGE_CURVE($,#172,#168,#19,.T.);
#208=EDGE_CURVE($,#173,#174,#20,.T.);
#209=EDGE_CURVE($,#175,#173,#21,.T.);
#210=EDGE_CURVE($,#176,#175,#22,.T.);
#211=EDGE_CURVE($,#174,#176,#23,.T.);
#212=EDGE_CURVE($,#177,#178,#24,.T.);
#213=EDGE_CURVE($,#179,#177,#25,.T.);
#214=EDGE_CURVE($,#180,#179,#26,.T.);
#215=EDGE_CURVE($,#180,#178,#27,.T.);
#216=EDGE_CURVE($,#173,#181,#28,.T.);
#217=EDGE_CURVE($,#181,#182,#29,.T.);
#218=EDGE_CURVE($,#182,#183,#30,.T.);
#219=EDGE_CURVE($,#183,#184,#31,.T.);
#220=EDGE_CURVE($,#184,#178,#32,.T.);
#221=EDGE_CURVE($,#185,#180,#33,.T.);
#222=EDGE_CURVE($,#185,#186,#34,.T.);
#223=EDGE_CURVE($,#186,#187,#35,.T.);
#224=EDGE_CURVE($,#187,#188,#36,.T.);
#225=EDGE_CURVE($,#175,#188,#37,.T.);
#226=EDGE_CURVE($,#184,#189,#38,.T.);
#227=EDGE_CURVE($,#189,#177,#39,.T.);
#228=EDGE_CURVE($,#174,#190,#40,.T.);
#229=EDGE_CURVE($,#190,#181,#41,.T.);
#230=EDGE_CURVE($,#188,#191,#42,.T.);
#231=EDGE_CURVE($,#176,#191,#43,.T.);
#232=EDGE_CURVE($,#192,#179,#44,.T.);
#233=EDGE_CURVE($,#192,#185,#45,.T.);
#234=EDGE_CURVE($,#189,#192,#46,.T.);
#235=EDGE_CURVE($,#191,#190,#47,.T.);
#236=EDGE_CURVE($,#182,#170,#48,.T.);
#237=EDGE_CURVE($,#193,#187,#49,.T.);
#238=EDGE_CURVE($,#194,#193,#50,.T.);
#239=EDGE_CURVE($,#171,#194,#51,.T.);
#240=EDGE_CURVE($,#186,#195,#52,.T.);
#241=EDGE_CURVE($,#195,#193,#53,.T.);
#242=EDGE_CURVE($,#164,#194,#54,.T.);
#243=EDGE_CURVE($,#195,#172,#55,.T.);
#244=EDGE_CURVE($,#169,#183,#56,.T.);
#245=ORIENTED_EDGE($,*,*,#196,.F.);
#246=ORIENTED_EDGE($,*,*,#197,.F.);
#247=ORIENTED_EDGE($,*,*,#198,.F.);
#248=ORIENTED_EDGE($,*,*,#199,.F.);
#249=ORIENTED_EDGE($,*,*,#200,.F.);
#250=ORIENTED_EDGE($,*,*,#198,.T.);
#251=ORIENTED_EDGE($,*,*,#201,.F.);
#252=ORIENTED_EDGE($,*,*,#202,.T.);
#253=ORIENTED_EDGE($,*,*,#203,.T.);
#254=ORIENTED_EDGE($,*,*,#204,.T.);
#255=ORIENTED_EDGE($,*,*,#205,.F.);
#256=ORIENTED_EDGE($,*,*,#197,.T.);
#257=ORIENTED_EDGE($,*,*,#206,.F.);
#258=ORIENTED_EDGE($,*,*,#207,.T.);
#259=ORIENTED_EDGE($,*,*,#201,.T.);
#260=ORIENTED_EDGE($,*,*,#208,.F.);
#261=ORIENTED_EDGE($,*,*,#209,.F.);
#262=ORIENTED_EDGE($,*,*,#210,.F.);
#263=ORIENTED_EDGE($,*,*,#211,.F.);
#264=ORIENTED_EDGE($,*,*,#212,.F.);
#265=ORIENTED_EDGE($,*,*,#213,.F.);
#266=ORIENTED_EDGE($,*,*,#214,.F.);
#267=ORIENTED_EDGE($,*,*,#215,.T.);
#268=ORIENTED_EDGE($,*,*,#200,.T.);
#269=ORIENTED_EDGE($,*,*,#216,.T.);
#270=ORIENTED_EDGE($,*,*,#217,.T.);
#271=ORIENTED_EDGE($,*,*,#218,.T.);
#272=ORIENTED_EDGE($,*,*,#219,.T.);
#273=ORIENTED_EDGE($,*,*,#220,.T.);
#274=ORIENTED_EDGE($,*,*,#215,.F.);
#275=ORIENTED_EDGE($,*,*,#221,.F.);
#276=ORIENTED_EDGE($,*,*,#222,.T.);
#277=ORIENTED_EDGE($,*,*,#223,.T.);
#278=ORIENTED_EDGE($,*,*,#224,.T.);
#279=ORIENTED_EDGE($,*,*,#225,.F.);
#280=ORIENTED_EDGE($,*,*,#209,.T.);
#281=ORIENTED_EDGE($,*,*,#212,.T.);
#282=ORIENTED_EDGE($,*,*,#220,.F.);
#283=ORIENTED_EDGE($,*,*,#226,.T.);
#284=ORIENTED_EDGE($,*,*,#227,.T.);
#285=ORIENTED_EDGE($,*,*,#208,.T.);
#286=ORIENTED_EDGE($,*,*,#228,.T.);
#287=ORIENTED_EDGE($,*,*,#229,.T.);
#288=ORIENTED_EDGE($,*,*,#216,.F.);
#289=ORIENTED_EDGE($,*,*,#210,.T.);
#290=ORIENTED_EDGE($,*,*,#225,.T.);
#291=ORIENTED_EDGE($,*,*,#230,.T.);
#292=ORIENTED_EDGE($,*,*,#231,.F.);
#293=ORIENTED_EDGE($,*,*,#214,.T.);
#294=ORIENTED_EDGE($,*,*,#232,.F.);
#295=ORIENTED_EDGE($,*,*,#233,.T.);
#296=ORIENTED_EDGE($,*,*,#221,.T.);
#297=ORIENTED_EDGE($,*,*,#213,.T.);
#298=ORIENTED_EDGE($,*,*,#227,.F.);
#299=ORIENTED_EDGE($,*,*,#234,.T.);
#300=ORIENTED_EDGE($,*,*,#232,.T.);
#301=ORIENTED_EDGE($,*,*,#211,.T.);
#302=ORIENTED_EDGE($,*,*,#231,.T.);
#303=ORIENTED_EDGE($,*,*,#235,.T.);
#304=ORIENTED_EDGE($,*,*,#228,.F.);
#305=ORIENTED_EDGE($,*,*,#236,.F.);
#306=ORIENTED_EDGE($,*,*,#217,.F.);
#307=ORIENTED_EDGE($,*,*,#229,.F.);
#308=ORIENTED_EDGE($,*,*,#235,.F.);
#309=ORIENTED_EDGE($,*,*,#230,.F.);
#310=ORIENTED_EDGE($,*,*,#224,.F.);
#311=ORIENTED_EDGE($,*,*,#237,.F.);
#312=ORIENTED_EDGE($,*,*,#238,.F.);
#313=ORIENTED_EDGE($,*,*,#239,.F.);
#314=ORIENTED_EDGE($,*,*,#204,.F.);
#315=ORIENTED_EDGE($,*,*,#240,.T.);
#316=ORIENTED_EDGE($,*,*,#241,.T.);
#317=ORIENTED_EDGE($,*,*,#237,.T.);
#318=ORIENTED_EDGE($,*,*,#223,.F.);
#319=ORIENTED_EDGE($,*,*,#196,.T.);
#320=ORIENTED_EDGE($,*,*,#242,.T.);
#321=ORIENTED_EDGE($,*,*,#238,.T.);
#322=ORIENTED_EDGE($,*,*,#241,.F.);
#323=ORIENTED_EDGE($,*,*,#243,.T.);
#324=ORIENTED_EDGE($,*,*,#206,.T.);
#325=ORIENTED_EDGE($,*,*,#199,.T.);
#326=ORIENTED_EDGE($,*,*,#205,.T.);
#327=ORIENTED_EDGE($,*,*,#239,.T.);
#328=ORIENTED_EDGE($,*,*,#242,.F.);
#329=ORIENTED_EDGE($,*,*,#244,.T.);
#330=ORIENTED_EDGE($,*,*,#218,.F.);
#331=ORIENTED_EDGE($,*,*,#236,.T.);
#332=ORIENTED_EDGE($,*,*,#203,.F.);
#333=ORIENTED_EDGE($,*,*,#226,.F.);
#334=ORIENTED_EDGE($,*,*,#219,.F.);
#335=ORIENTED_EDGE($,*,*,#244,.F.);
#336=ORIENTED_EDGE($,*,*,#202,.F.);
#337=ORIENTED_EDGE($,*,*,#207,.F.);
#338=ORIENTED_EDGE($,*,*,#243,.F.);
#339=ORIENTED_EDGE($,*,*,#240,.F.);
#340=ORIENTED_EDGE($,*,*,#222,.F.);
#341=ORIENTED_EDGE($,*,*,#233,.F.);
#342=ORIENTED_EDGE($,*,*,#234,.F.);
#343=CYLINDRICAL_SURFACE($,#365,3.2);
#344=ADVANCED_FACE($,(#121,#118),#343,.F.);
#345=ADVANCED_FACE($,(#122),#101,.T.);
#346=ADVANCED_FACE($,(#123),#102,.T.);
#347=ADVANCED_FACE($,(#124),#103,.F.);
#348=ADVANCED_FACE($,(#125),#104,.F.);
#349=ADVANCED_FACE($,(#119,#120),#105,.T.);
#350=ADVANCED_FACE($,(#126),#106,.T.);
#351=ADVANCED_FACE($,(#127),#107,.T.);
#352=ADVANCED_FACE($,(#128),#108,.T.);
#353=ADVANCED_FACE($,(#129),#109,.T.);
#354=ADVANCED_FACE($,(#130),#110,.T.);
#355=ADVANCED_FACE($,(#131),#111,.T.);
#356=ADVANCED_FACE($,(#132),#112,.F.);
#357=ADVANCED_FACE($,(#133),#113,.T.);
#358=ADVANCED_FACE($,(#134),#114,.T.);
#359=ADVANCED_FACE($,(#135),#115,.T.);
#360=ADVANCED_FACE($,(#136),#116,.T.);
#361=ADVANCED_FACE($,(#137),#117,.T.);
#362=CLOSED_SHELL($,(#344,#345,#346,#347,#348,#349,#350,#351,#352,#353,
#354,#355,#356,#357,#358,#359,#360,#361));
#363=MANIFOLD_SOLID_BREP('T\X2\011B\X0\leso1',#362);
#364=AXIS2_PLACEMENT_3D('placement',#480,#388,#389);
#365=AXIS2_PLACEMENT_3D($,#481,#390,#391);
#366=AXIS2_PLACEMENT_3D($,#484,#392,#393);
#367=AXIS2_PLACEMENT_3D($,#486,#394,#395);
#368=AXIS2_PLACEMENT_3D($,#488,#396,#397);
#369=AXIS2_PLACEMENT_3D($,#489,#398,#399);
#370=AXIS2_PLACEMENT_3D($,#491,#400,#401);
#371=AXIS2_PLACEMENT_3D($,#492,#402,#403);
#372=AXIS2_PLACEMENT_3D($,#502,#409,#410);
#373=AXIS2_PLACEMENT_3D($,#506,#413,#414);
#374=AXIS2_PLACEMENT_3D($,#515,#419,#420);
#375=AXIS2_PLACEMENT_3D($,#524,#425,#426);
#376=AXIS2_PLACEMENT_3D($,#543,#437,#438);
#377=AXIS2_PLACEMENT_3D($,#547,#441,#442);
#378=AXIS2_PLACEMENT_3D($,#551,#445,#446);
#379=AXIS2_PLACEMENT_3D($,#555,#449,#450);
#380=AXIS2_PLACEMENT_3D($,#559,#453,#454);
#381=AXIS2_PLACEMENT_3D($,#561,#456,#457);
#382=AXIS2_PLACEMENT_3D($,#563,#459,#460);
#383=AXIS2_PLACEMENT_3D($,#570,#465,#466);
#384=AXIS2_PLACEMENT_3D($,#574,#469,#470);
#385=AXIS2_PLACEMENT_3D($,#577,#473,#474);
#386=AXIS2_PLACEMENT_3D($,#578,#475,#476);
#387=AXIS2_PLACEMENT_3D($,#580,#478,#479);
#388=DIRECTION('axis',(0.,0.,1.));
#389=DIRECTION('refdir',(1.,0.,0.));
#390=DIRECTION('center_axis',(1.2490009027033E-015,1.,0.));
#391=DIRECTION('ref_axis',(-1.,1.2490009027033E-015,0.));
#392=DIRECTION('center_axis',(-0.707106781186548,0.707106781186547,0.));
#393=DIRECTION('ref_axis',(-0.707106781186547,-0.707106781186548,0.));
#394=DIRECTION('center_axis',(-2.77555756156289E-016,1.,0.));
#395=DIRECTION('ref_axis',(-1.,1.2490009027033E-015,0.));
#396=DIRECTION('center_axis',(0.707106781186548,0.707106781186547,0.));
#397=DIRECTION('ref_axis',(-0.707106781186547,0.707106781186548,0.));
#398=DIRECTION('center_axis',(-2.77555756156289E-016,1.,0.));
#399=DIRECTION('ref_axis',(-1.,1.2490009027033E-015,0.));
#400=DIRECTION('center_axis',(-1.2490009027033E-015,-1.,0.));
#401=DIRECTION('ref_axis',(-1.,1.2490009027033E-015,0.));
#402=DIRECTION('center_axis',(-0.707106781186548,-0.707106781186547,0.));
#403=DIRECTION('ref_axis',(0.,0.,1.));
#404=DIRECTION($,(0.,0.,-1.));
#405=DIRECTION($,(-0.707106781186547,0.707106781186548,0.));
#406=DIRECTION($,(0.,0.,-1.));
#407=DIRECTION($,(0.707106781186547,-0.707106781186548,0.));
#408=DIRECTION($,(0.,0.,-1.));
#409=DIRECTION('center_axis',(2.77555756156289E-016,-1.,0.));
#410=DIRECTION('ref_axis',(0.,0.,-1.));
#411=DIRECTION($,(0.,0.,-1.));
#412=DIRECTION($,(-1.,-2.77555756156289E-016,0.));
#413=DIRECTION('center_axis',(0.,0.,-1.));
#414=DIRECTION('ref_axis',(-1.,0.,0.));
#415=DIRECTION($,(4.44089209850063E-016,1.,0.));
#416=DIRECTION($,(-1.,-4.44089209848985E-016,0.));
#417=DIRECTION($,(4.44089209850063E-016,-1.,0.));
#418=DIRECTION($,(1.,0.,0.));
#419=DIRECTION('center_axis',(0.,0.,1.));
#420=DIRECTION('ref_axis',(1.,0.,0.));
#421=DIRECTION($,(-4.44089209850063E-016,-1.,0.));
#422=DIRECTION($,(-1.,0.,0.));
#423=DIRECTION($,(-4.44089209850063E-016,1.,0.));
#424=DIRECTION($,(-1.,-4.44089209848985E-016,0.));
#425=DIRECTION('center_axis',(1.2490009027033E-015,1.,0.));
#426=DIRECTION('ref_axis',(0.,0.,1.));
#427=DIRECTION($,(0.,0.,-1.));
#428=DIRECTION($,(-1.,1.2490009027033E-015,0.));
#429=DIRECTION($,(0.,0.,1.));
#430=DIRECTION($,(1.,-1.2490009027033E-015,0.));
#431=DIRECTION($,(0.,0.,-1.));
#432=DIRECTION($,(0.,0.,-1.));
#433=DIRECTION($,(1.,6.81382544898484E-016,0.));
#434=DIRECTION($,(0.,0.,-1.));
#435=DIRECTION($,(-1.,-6.81382544898484E-016,0.));
#436=DIRECTION($,(0.,0.,-1.));
#437=DIRECTION('center_axis',(-1.,4.44089209850063E-016,0.));
#438=DIRECTION('ref_axis',(0.,0.,1.));
#439=DIRECTION($,(4.44089209850063E-016,1.,0.));
#440=DIRECTION($,(0.,0.,-1.));
#441=DIRECTION('center_axis',(-1.,4.44089209850063E-016,0.));
#442=DIRECTION('ref_axis',(0.,0.,1.));
#443=DIRECTION($,(0.,0.,-1.));
#444=DIRECTION($,(-4.44089209850063E-016,-1.,0.));
#445=DIRECTION('center_axis',(1.,4.44089209850063E-016,0.));
#446=DIRECTION('ref_axis',(0.,0.,-1.));
#447=DIRECTION($,(-4.44089209850063E-016,1.,0.));
#448=DIRECTION($,(0.,0.,-1.));
#449=DIRECTION('center_axis',(1.,4.44089209850063E-016,0.));
#450=DIRECTION('ref_axis',(0.,0.,-1.));
#451=DIRECTION($,(0.,0.,-1.));
#452=DIRECTION($,(4.44089209850063E-016,-1.,0.));
#453=DIRECTION('center_axis',(0.,1.,0.));
#454=DIRECTION('ref_axis',(0.,0.,1.));
#455=DIRECTION($,(1.,0.,0.));
#456=DIRECTION('center_axis',(0.,1.,0.));
#457=DIRECTION('ref_axis',(0.,0.,1.));
#458=DIRECTION($,(-1.,0.,0.));
#459=DIRECTION('center_axis',(0.,0.,1.));
#460=DIRECTION('ref_axis',(1.,0.,0.));
#461=DIRECTION($,(0.,-1.,0.));
#462=DIRECTION($,(0.,1.,0.));
#463=DIRECTION($,(0.707106781186547,0.707106781186548,0.));
#464=DIRECTION($,(1.,2.77555756156289E-016,0.));
#465=DIRECTION('center_axis',(1.,0.,0.));
#466=DIRECTION('ref_axis',(0.,0.,-1.));
#467=DIRECTION($,(0.,-1.,0.));
#468=DIRECTION($,(0.,0.,-1.));
#469=DIRECTION('center_axis',(0.707106781186548,-0.707106781186547,0.));
#470=DIRECTION('ref_axis',(0.,0.,-1.));
#471=DIRECTION($,(0.,0.,-1.));
#472=DIRECTION($,(-0.707106781186547,-0.707106781186548,0.));
#473=DIRECTION('center_axis',(2.77555756156289E-016,-1.,0.));
#474=DIRECTION('ref_axis',(0.,0.,-1.));
#475=DIRECTION('center_axis',(-1.,0.,0.));
#476=DIRECTION('ref_axis',(0.,0.,1.));
#477=DIRECTION($,(0.,1.,0.));
#478=DIRECTION('center_axis',(0.,0.,1.));
#479=DIRECTION('ref_axis',(1.,0.,0.));
#480=CARTESIAN_POINT('',(0.,0.,0.));
#481=CARTESIAN_POINT('Origin',(-4.35808453833824E-014,-34.0036762713807,
0.));
#482=CARTESIAN_POINT('',(2.,-7.49999999954212,2.49799919935935));
#483=CARTESIAN_POINT('',(2.,-7.49999999954212,-2.49799919935935));
#484=CARTESIAN_POINT('Origin',(-1.29757316003065E-014,-9.49999999954214,
0.));
#485=CARTESIAN_POINT('',(-2.,-7.49999999954212,2.49799919935937));
#486=CARTESIAN_POINT('Origin',(-1.04777297948999E-014,-7.49999999954212,
0.));
#487=CARTESIAN_POINT('',(-2.,-7.49999999954212,-2.49799919935937));
#488=CARTESIAN_POINT('Origin',(-1.29757316003065E-014,-9.49999999954211,
0.));
#489=CARTESIAN_POINT('Origin',(-1.04777297948999E-014,-7.49999999954212,
0.));
#490=CARTESIAN_POINT('',(-3.2,4.57877319393063E-010,0.));
#491=CARTESIAN_POINT('Origin',(-1.11022302462516E-015,4.57873738923809E-010,
0.));
#492=CARTESIAN_POINT('Origin',(-2.,-7.49999999954212,0.));
#493=CARTESIAN_POINT('',(-2.,-7.49999999954212,15.));
#494=CARTESIAN_POINT($,(-2.,-7.49999999954212,0.));
#495=CARTESIAN_POINT('',(-5.,-4.49999999954212,15.));
#496=CARTESIAN_POINT($,(-2.,-7.49999999954212,15.));
#497=CARTESIAN_POINT('',(-5.,-4.49999999954212,-15.));
#498=CARTESIAN_POINT($,(-5.,-4.49999999954212,0.));
#499=CARTESIAN_POINT('',(-2.,-7.49999999954212,-15.));
#500=CARTESIAN_POINT($,(-2.,-7.49999999954212,-15.));
#501=CARTESIAN_POINT($,(-2.,-7.49999999954212,0.));
#502=CARTESIAN_POINT('Origin',(2.,-7.49999999954212,0.));
#503=CARTESIAN_POINT('',(2.,-7.49999999954212,15.));
#504=CARTESIAN_POINT($,(2.,-7.49999999954212,0.));
#505=CARTESIAN_POINT($,(2.,-7.49999999954212,15.));
#506=CARTESIAN_POINT('Origin',(3.,4.57877069592882E-010,-5.));
#507=CARTESIAN_POINT('',(-3.,4.57874405057623E-010,-5.));
#508=CARTESIAN_POINT('',(-3.,5.00000000045787,-5.));
#509=CARTESIAN_POINT($,(-3.,4.57878401860512E-010,-5.));
#510=CARTESIAN_POINT('',(3.,4.57877069592882E-010,-5.));
#511=CARTESIAN_POINT($,(3.,4.57877069592882E-010,-5.));
#512=CARTESIAN_POINT('',(3.,5.00000000045788,-5.));
#513=CARTESIAN_POINT($,(3.,2.50000000045788,-5.));
#514=CARTESIAN_POINT($,(1.11022302462516E-015,5.00000000045788,-5.));
#515=CARTESIAN_POINT('Origin',(3.,5.00000000045788,5.));
#516=CARTESIAN_POINT('',(-3.,5.00000000045787,5.));
#517=CARTESIAN_POINT('',(-3.,4.57874137769031E-010,5.));
#518=CARTESIAN_POINT($,(-3.,2.50000000045788,5.));
#519=CARTESIAN_POINT('',(3.,5.00000000045788,5.));
#520=CARTESIAN_POINT($,(0.,5.00000000045788,5.));
#521=CARTESIAN_POINT('',(3.,4.5787680230429E-010,5.));
#522=CARTESIAN_POINT($,(3.,5.00000000045788,5.));
#523=CARTESIAN_POINT($,(3.,4.5787680230429E-010,5.));
#524=CARTESIAN_POINT('Origin',(-5.,4.57879567594688E-010,0.));
#525=CARTESIAN_POINT('',(-3.,4.57877069592882E-010,-15.));
#526=CARTESIAN_POINT($,(-3.,4.57877069592882E-010,0.));
#527=CARTESIAN_POINT('',(-5.,4.57879567594688E-010,-15.));
#528=CARTESIAN_POINT($,(-5.,4.57879567594688E-010,-15.));
#529=CARTESIAN_POINT('',(-5.,4.57879567594688E-010,15.));
#530=CARTESIAN_POINT($,(-5.,4.57879567594688E-010,0.));
#531=CARTESIAN_POINT('',(-3.,4.57877069592882E-010,15.));
#532=CARTESIAN_POINT($,(-5.,4.57879567594688E-010,15.));
#533=CARTESIAN_POINT($,(-3.,4.57877069592882E-010,0.));
#534=CARTESIAN_POINT('',(3.,4.57877069592882E-010,15.));
#535=CARTESIAN_POINT($,(3.,4.57877069592882E-010,0.));
#536=CARTESIAN_POINT('',(5.,4.57878432357972E-010,15.));
#537=CARTESIAN_POINT($,(3.,4.57877069592882E-010,15.));
#538=CARTESIAN_POINT('',(5.,4.57878432357972E-010,-15.));
#539=CARTESIAN_POINT($,(5.,4.57878432357972E-010,0.));
#540=CARTESIAN_POINT('',(3.,4.57877069592882E-010,-15.));
#541=CARTESIAN_POINT($,(3.,4.57877069592882E-010,-15.));
#542=CARTESIAN_POINT($,(3.,4.57877069592882E-010,0.));
#543=CARTESIAN_POINT('Origin',(-3.,4.57877069592882E-010,0.));
#544=CARTESIAN_POINT('',(-3.,5.00000000045788,15.));
#545=CARTESIAN_POINT($,(-3.,4.57877069592882E-010,15.));
#546=CARTESIAN_POINT($,(-3.,5.00000000045788,0.));
#547=CARTESIAN_POINT('Origin',(-3.,4.57877069592882E-010,0.));
#548=CARTESIAN_POINT('',(-3.,5.00000000045788,-15.));
#549=CARTESIAN_POINT($,(-3.,5.00000000045788,0.));
#550=CARTESIAN_POINT($,(-3.,4.57877069592882E-010,-15.));
#551=CARTESIAN_POINT('Origin',(3.,5.00000000045788,0.));
#552=CARTESIAN_POINT('',(3.,5.00000000045788,-15.));
#553=CARTESIAN_POINT($,(3.,5.00000000045788,-15.));
#554=CARTESIAN_POINT($,(3.,5.00000000045788,0.));
#555=CARTESIAN_POINT('Origin',(3.,5.00000000045788,0.));
#556=CARTESIAN_POINT('',(3.,5.00000000045788,15.));
#557=CARTESIAN_POINT($,(3.,5.00000000045788,0.));
#558=CARTESIAN_POINT($,(3.,5.00000000045788,15.));
#559=CARTESIAN_POINT('Origin',(-3.,5.00000000045788,0.));
#560=CARTESIAN_POINT($,(-3.,5.00000000045788,15.));
#561=CARTESIAN_POINT('Origin',(-3.,5.00000000045788,0.));
#562=CARTESIAN_POINT($,(-3.,5.00000000045788,-15.));
#563=CARTESIAN_POINT('Origin',(-4.85722573273506E-016,-1.11272448196776,
-15.));
#564=CARTESIAN_POINT($,(-5.,-4.49999999954212,-15.));
#565=CARTESIAN_POINT('',(5.,-4.49999999954212,-15.));
#566=CARTESIAN_POINT($,(5.,4.57878179815907E-010,-15.));
#567=CARTESIAN_POINT('',(2.,-7.49999999954212,-15.));
#568=CARTESIAN_POINT($,(5.,-4.49999999954212,-15.));
#569=CARTESIAN_POINT($,(2.,-7.49999999954212,-15.));
#570=CARTESIAN_POINT('Origin',(5.,4.57878432357972E-010,0.));
#571=CARTESIAN_POINT('',(5.,-4.49999999954212,15.));
#572=CARTESIAN_POINT($,(5.,4.57878179815907E-010,15.));
#573=CARTESIAN_POINT($,(5.,-4.49999999954212,0.));
#574=CARTESIAN_POINT('Origin',(5.,-4.49999999954212,0.));
#575=CARTESIAN_POINT($,(2.,-7.49999999954212,0.));
#576=CARTESIAN_POINT($,(5.,-4.49999999954212,15.));
#577=CARTESIAN_POINT('Origin',(2.,-7.49999999954212,0.));
#578=CARTESIAN_POINT('Origin',(-5.,-4.49999999954212,0.));
#579=CARTESIAN_POINT($,(-5.,-4.49999999954212,15.));
#580=CARTESIAN_POINT('Origin',(-4.85722573273506E-016,-1.11272448196776,
15.));
#581=UNCERTAINTY_MEASURE_WITH_UNIT(LENGTH_MEASURE(0.01),#583,
'DISTANCE_ACCURACY_VALUE',
'Maximum model space distance between geometric entities at asserted c
onnectivities');
#582=(
GEOMETRIC_REPRESENTATION_CONTEXT(3)
GLOBAL_UNCERTAINTY_ASSIGNED_CONTEXT((#581))
GLOBAL_UNIT_ASSIGNED_CONTEXT((#583,#586,#584))
REPRESENTATION_CONTEXT('','3D')
);
#583=(
LENGTH_UNIT()
NAMED_UNIT(*)
SI_UNIT(.MILLI.,.METRE.)
);
#584=(
NAMED_UNIT(*)
SI_UNIT($,.STERADIAN.)
SOLID_ANGLE_UNIT()
);
#585=DIMENSIONAL_EXPONENTS(0.,0.,0.,0.,0.,0.,0.);
#586=(
CONVERSION_BASED_UNIT('degree',#588)
NAMED_UNIT(#585)
PLANE_ANGLE_UNIT()
);
#587=(
NAMED_UNIT(*)
PLANE_ANGLE_UNIT()
SI_UNIT($,.RADIAN.)
);
#588=PLANE_ANGLE_MEASURE_WITH_UNIT(PLANE_ANGLE_MEASURE(0.01745329252),#587);
#589=SHAPE_DEFINITION_REPRESENTATION(#590,#591);
#590=PRODUCT_DEFINITION_SHAPE('',$,#593);
#591=SHAPE_REPRESENTATION('',(#364),#582);
#592=PRODUCT_DEFINITION_CONTEXT('3D Mechanical Parts',#596,'design');
#593=PRODUCT_DEFINITION('210615','210615',#594,#592);
#594=PRODUCT_DEFINITION_FORMATION('',$,#598);
#595=APPLICATION_PROTOCOL_DEFINITION('international standard',
'automotive_design',2009,#596);
#596=APPLICATION_CONTEXT(
'Core Data for Automotive Mechanical Design Process');
#597=PRODUCT_CONTEXT('3D Mechanical Parts',#596,'mechanical');
#598=PRODUCT('210615','210615',$,(#597));
#599=PRESENTATION_STYLE_ASSIGNMENT((#600));
#600=SURFACE_STYLE_USAGE(.BOTH.,#601);
#601=SURFACE_SIDE_STYLE($,(#602));
#602=SURFACE_STYLE_FILL_AREA(#603);
#603=FILL_AREA_STYLE($,(#604));
#604=FILL_AREA_STYLE_COLOUR($,#605);
#605=COLOUR_RGB('',0.,0.,0.);
ENDSEC;
END-ISO-10303-21;
