ISO-10303-21;
HEADER;
/* Generated by software containing ST-Developer
 * from STEP Tools, Inc. (www.steptools.com) 
 */

FILE_DESCRIPTION(
/* description */ ('Nakr\X2\0119\X0\tka M5 ze spr\X2\0119017C\X0\yn\X2\0105\X0\ 
45-8'),
/* implementation_level */ '2;1');

FILE_NAME(
/* name */ 
'W:\\_BIG DATA\\STP IGS\\Akcesoria\\Elementy z\X2\01420105\X0\czne\\ST
P\\Nakr\X2\0119\X0\tki\\210502.stp',
/* time_stamp */ '2022-10-06T09:25:40+02:00',
/* author */ ('aluteckkpl_tw'),
/* organization */ (''),
/* preprocessor_version */ 'ST-DEVELOPER v18.1',
/* originating_system */ 'Autodesk Inventor 2021',
/* authorisation */ '');

FILE_SCHEMA (('CONFIG_CONTROL_DESIGN'));
ENDSEC;

DATA;
#10=MECHANICAL_DESIGN_GEOMETRIC_PRESENTATION_REPRESENTATION('',(#13),#484);
#11=SHAPE_REPRESENTATION_RELATIONSHIP('SRR','None',#491,#12);
#12=ADVANCED_BREP_SHAPE_REPRESENTATION('',(#14),#483);
#13=STYLED_ITEM('',(#500),#14);
#14=MANIFOLD_SOLID_BREP('Solid1',#273);
#15=CONICAL_SURFACE('',#308,6.,0.785398163397448);
#16=FACE_BOUND('',#51,.T.);
#17=FACE_BOUND('',#59,.T.);
#18=CYLINDRICAL_SURFACE('',#298,3.5);
#19=CYLINDRICAL_SURFACE('',#301,3.5);
#20=CYLINDRICAL_SURFACE('',#305,2.067);
#21=CIRCLE('',#295,3.5);
#22=CIRCLE('',#296,3.5);
#23=CIRCLE('',#299,3.5);
#24=CIRCLE('',#302,3.5);
#25=CIRCLE('',#304,2.067);
#26=CIRCLE('',#306,2.067);
#27=CIRCLE('',#307,2.067);
#28=CIRCLE('',#309,5.5);
#29=CIRCLE('',#310,5.5);
#30=FACE_OUTER_BOUND('',#44,.T.);
#31=FACE_OUTER_BOUND('',#45,.T.);
#32=FACE_OUTER_BOUND('',#46,.T.);
#33=FACE_OUTER_BOUND('',#47,.T.);
#34=FACE_OUTER_BOUND('',#48,.T.);
#35=FACE_OUTER_BOUND('',#49,.T.);
#36=FACE_OUTER_BOUND('',#50,.T.);
#37=FACE_OUTER_BOUND('',#52,.T.);
#38=FACE_OUTER_BOUND('',#53,.T.);
#39=FACE_OUTER_BOUND('',#54,.T.);
#40=FACE_OUTER_BOUND('',#55,.T.);
#41=FACE_OUTER_BOUND('',#56,.T.);
#42=FACE_OUTER_BOUND('',#57,.T.);
#43=FACE_OUTER_BOUND('',#58,.T.);
#44=EDGE_LOOP('',(#173,#174,#175,#176));
#45=EDGE_LOOP('',(#177,#178,#179,#180,#181,#182));
#46=EDGE_LOOP('',(#183,#184,#185,#186));
#47=EDGE_LOOP('',(#187,#188,#189,#190));
#48=EDGE_LOOP('',(#191,#192,#193,#194));
#49=EDGE_LOOP('',(#195,#196,#197,#198));
#50=EDGE_LOOP('',(#199,#200,#201,#202));
#51=EDGE_LOOP('',(#203));
#52=EDGE_LOOP('',(#204,#205,#206,#207,#208));
#53=EDGE_LOOP('',(#209,#210,#211,#212,#213,#214,#215,#216,#217,#218,#219,
#220,#221));
#54=EDGE_LOOP('',(#222,#223,#224,#225,#226));
#55=EDGE_LOOP('',(#227,#228,#229,#230));
#56=EDGE_LOOP('',(#231,#232,#233,#234));
#57=EDGE_LOOP('',(#235,#236,#237,#238,#239,#240,#241,#242,#243,#244));
#58=EDGE_LOOP('',(#245,#246));
#59=EDGE_LOOP('',(#247,#248));
#60=LINE('',#392,#80);
#61=LINE('',#394,#81);
#62=LINE('',#395,#82);
#63=LINE('',#402,#83);
#64=LINE('',#406,#84);
#65=LINE('',#414,#85);
#66=LINE('',#415,#86);
#67=LINE('',#419,#87);
#68=LINE('',#422,#88);
#69=LINE('',#423,#89);
#70=LINE('',#429,#90);
#71=LINE('',#431,#91);
#72=LINE('',#433,#92);
#73=LINE('',#434,#93);
#74=LINE('',#442,#94);
#75=LINE('',#449,#95);
#76=LINE('',#473,#96);
#77=LINE('',#474,#97);
#78=LINE('',#476,#98);
#79=LINE('',#478,#99);
#80=VECTOR('',#320,10.);
#81=VECTOR('',#321,10.);
#82=VECTOR('',#322,10.);
#83=VECTOR('',#325,10.);
#84=VECTOR('',#328,10.);
#85=VECTOR('',#333,10.);
#86=VECTOR('',#334,10.);
#87=VECTOR('',#339,10.);
#88=VECTOR('',#342,10.);
#89=VECTOR('',#343,10.);
#90=VECTOR('',#350,10.);
#91=VECTOR('',#351,10.);
#92=VECTOR('',#352,10.);
#93=VECTOR('',#353,10.);
#94=VECTOR('',#362,2.067);
#95=VECTOR('',#369,6.);
#96=VECTOR('',#372,10.);
#97=VECTOR('',#373,10.);
#98=VECTOR('',#376,10.);
#99=VECTOR('',#379,10.);
#100=(
BOUNDED_CURVE()
B_SPLINE_CURVE(2,(#388,#389,#390),.UNSPECIFIED.,.F.,.F.)
B_SPLINE_CURVE_WITH_KNOTS((3,3),(1.49706543771396,1.49782950665236),
 .UNSPECIFIED.)
CURVE()
GEOMETRIC_REPRESENTATION_ITEM()
RATIONAL_B_SPLINE_CURVE((1.02384534878307,1.023592192822,1.02333877223921))
REPRESENTATION_ITEM('')
);
#101=(
BOUNDED_CURVE()
B_SPLINE_CURVE(2,(#398,#399,#400),.UNSPECIFIED.,.F.,.F.)
B_SPLINE_CURVE_WITH_KNOTS((3,3),(0.040222178952397,1.36949838545151),
 .UNSPECIFIED.)
CURVE()
GEOMETRIC_REPRESENTATION_ITEM()
RATIONAL_B_SPLINE_CURVE((1.02308309696303,1.39330953099154,1.02308309696303))
REPRESENTATION_ITEM('')
);
#102=(
BOUNDED_CURVE()
B_SPLINE_CURVE(2,(#410,#411,#412),.UNSPECIFIED.,.F.,.F.)
B_SPLINE_CURVE_WITH_KNOTS((3,3),(0.034375990464084,0.0351400594024696),
 .UNSPECIFIED.)
CURVE()
GEOMETRIC_REPRESENTATION_ITEM()
RATIONAL_B_SPLINE_CURVE((1.02333877223876,1.02359219282154,1.0238453487826))
REPRESENTATION_ITEM('')
);
#103=(
BOUNDED_CURVE()
B_SPLINE_CURVE(2,(#451,#452,#453),.UNSPECIFIED.,.F.,.F.)
B_SPLINE_CURVE_WITH_KNOTS((3,3),(0.0587433032615018,0.796084166399916),
 .UNSPECIFIED.)
CURVE()
GEOMETRIC_REPRESENTATION_ITEM()
RATIONAL_B_SPLINE_CURVE((1.03553390593274,1.24999999999866,1.25))
REPRESENTATION_ITEM('')
);
#104=(
BOUNDED_CURVE()
B_SPLINE_CURVE(2,(#454,#455,#456),.UNSPECIFIED.,.F.,.F.)
B_SPLINE_CURVE_WITH_KNOTS((3,3),(1.4920738300162,1.53342502954415),
 .UNSPECIFIED.)
CURVE()
GEOMETRIC_REPRESENTATION_ITEM()
RATIONAL_B_SPLINE_CURVE((1.05891455153678,1.04756149139894,1.03553390593472))
REPRESENTATION_ITEM('')
);
#105=(
BOUNDED_CURVE()
B_SPLINE_CURVE(2,(#458,#459,#460),.UNSPECIFIED.,.F.,.F.)
B_SPLINE_CURVE_WITH_KNOTS((3,3),(0.0587433032615019,0.100094502788974),
 .UNSPECIFIED.)
CURVE()
GEOMETRIC_REPRESENTATION_ITEM()
RATIONAL_B_SPLINE_CURVE((1.03553390593274,1.04756149139687,1.05891455153464))
REPRESENTATION_ITEM('')
);
#106=(
BOUNDED_CURVE()
B_SPLINE_CURVE(2,(#462,#463,#464),.UNSPECIFIED.,.F.,.F.)
B_SPLINE_CURVE_WITH_KNOTS((3,3),(0.0587433032615016,1.53342502954415),
 .UNSPECIFIED.)
CURVE()
GEOMETRIC_REPRESENTATION_ITEM()
RATIONAL_B_SPLINE_CURVE((1.03553390593274,1.46446609406627,1.03553390593472))
REPRESENTATION_ITEM('')
);
#107=(
BOUNDED_CURVE()
B_SPLINE_CURVE(2,(#466,#467,#468),.UNSPECIFIED.,.F.,.F.)
B_SPLINE_CURVE_WITH_KNOTS((3,3),(0.0587433032615017,1.53342502954415),
 .UNSPECIFIED.)
CURVE()
GEOMETRIC_REPRESENTATION_ITEM()
RATIONAL_B_SPLINE_CURVE((1.03553390593274,1.46446609406627,1.03553390593472))
REPRESENTATION_ITEM('')
);
#108=(
BOUNDED_CURVE()
B_SPLINE_CURVE(2,(#469,#470,#471),.UNSPECIFIED.,.F.,.F.)
B_SPLINE_CURVE_WITH_KNOTS((3,3),(0.796084166399916,1.53342502954415),
 .UNSPECIFIED.)
CURVE()
GEOMETRIC_REPRESENTATION_ITEM()
RATIONAL_B_SPLINE_CURVE((1.25,1.25000000000134,1.03553390593472))
REPRESENTATION_ITEM('')
);
#109=VERTEX_POINT('',#386);
#110=VERTEX_POINT('',#387);
#111=VERTEX_POINT('',#391);
#112=VERTEX_POINT('',#393);
#113=VERTEX_POINT('',#397);
#114=VERTEX_POINT('',#401);
#115=VERTEX_POINT('',#403);
#116=VERTEX_POINT('',#405);
#117=VERTEX_POINT('',#409);
#118=VERTEX_POINT('',#413);
#119=VERTEX_POINT('',#417);
#120=VERTEX_POINT('',#421);
#121=VERTEX_POINT('',#427);
#122=VERTEX_POINT('',#428);
#123=VERTEX_POINT('',#430);
#124=VERTEX_POINT('',#432);
#125=VERTEX_POINT('',#435);
#126=VERTEX_POINT('',#438);
#127=VERTEX_POINT('',#439);
#128=VERTEX_POINT('',#444);
#129=VERTEX_POINT('',#445);
#130=VERTEX_POINT('',#448);
#131=VERTEX_POINT('',#450);
#132=VERTEX_POINT('',#457);
#133=VERTEX_POINT('',#461);
#134=VERTEX_POINT('',#465);
#135=EDGE_CURVE('',#109,#110,#100,.T.);
#136=EDGE_CURVE('',#111,#109,#60,.T.);
#137=EDGE_CURVE('',#112,#111,#61,.T.);
#138=EDGE_CURVE('',#112,#110,#62,.T.);
#139=EDGE_CURVE('',#113,#109,#101,.T.);
#140=EDGE_CURVE('',#113,#114,#63,.T.);
#141=EDGE_CURVE('',#114,#115,#21,.T.);
#142=EDGE_CURVE('',#115,#116,#64,.T.);
#143=EDGE_CURVE('',#116,#111,#22,.T.);
#144=EDGE_CURVE('',#117,#113,#102,.T.);
#145=EDGE_CURVE('',#117,#118,#65,.T.);
#146=EDGE_CURVE('',#118,#114,#66,.T.);
#147=EDGE_CURVE('',#119,#112,#23,.T.);
#148=EDGE_CURVE('',#119,#116,#67,.T.);
#149=EDGE_CURVE('',#120,#119,#68,.T.);
#150=EDGE_CURVE('',#120,#115,#69,.T.);
#151=EDGE_CURVE('',#118,#120,#24,.T.);
#152=EDGE_CURVE('',#121,#122,#70,.T.);
#153=EDGE_CURVE('',#122,#123,#71,.T.);
#154=EDGE_CURVE('',#123,#124,#72,.T.);
#155=EDGE_CURVE('',#124,#121,#73,.T.);
#156=EDGE_CURVE('',#125,#125,#25,.T.);
#157=EDGE_CURVE('',#126,#127,#26,.T.);
#158=EDGE_CURVE('',#127,#126,#27,.T.);
#159=EDGE_CURVE('',#127,#125,#74,.T.);
#160=EDGE_CURVE('',#128,#129,#28,.T.);
#161=EDGE_CURVE('',#129,#128,#29,.T.);
#162=EDGE_CURVE('',#129,#130,#75,.T.);
#163=EDGE_CURVE('',#131,#130,#103,.T.);
#164=EDGE_CURVE('',#117,#131,#104,.T.);
#165=EDGE_CURVE('',#132,#110,#105,.T.);
#166=EDGE_CURVE('',#133,#132,#106,.T.);
#167=EDGE_CURVE('',#134,#133,#107,.T.);
#168=EDGE_CURVE('',#130,#134,#108,.T.);
#169=EDGE_CURVE('',#123,#134,#76,.T.);
#170=EDGE_CURVE('',#122,#131,#77,.T.);
#171=EDGE_CURVE('',#124,#133,#78,.T.);
#172=EDGE_CURVE('',#121,#132,#79,.T.);
#173=ORIENTED_EDGE('',*,*,#135,.F.);
#174=ORIENTED_EDGE('',*,*,#136,.F.);
#175=ORIENTED_EDGE('',*,*,#137,.F.);
#176=ORIENTED_EDGE('',*,*,#138,.T.);
#177=ORIENTED_EDGE('',*,*,#139,.F.);
#178=ORIENTED_EDGE('',*,*,#140,.T.);
#179=ORIENTED_EDGE('',*,*,#141,.T.);
#180=ORIENTED_EDGE('',*,*,#142,.T.);
#181=ORIENTED_EDGE('',*,*,#143,.T.);
#182=ORIENTED_EDGE('',*,*,#136,.T.);
#183=ORIENTED_EDGE('',*,*,#144,.F.);
#184=ORIENTED_EDGE('',*,*,#145,.T.);
#185=ORIENTED_EDGE('',*,*,#146,.T.);
#186=ORIENTED_EDGE('',*,*,#140,.F.);
#187=ORIENTED_EDGE('',*,*,#147,.T.);
#188=ORIENTED_EDGE('',*,*,#137,.T.);
#189=ORIENTED_EDGE('',*,*,#143,.F.);
#190=ORIENTED_EDGE('',*,*,#148,.F.);
#191=ORIENTED_EDGE('',*,*,#149,.T.);
#192=ORIENTED_EDGE('',*,*,#148,.T.);
#193=ORIENTED_EDGE('',*,*,#142,.F.);
#194=ORIENTED_EDGE('',*,*,#150,.F.);
#195=ORIENTED_EDGE('',*,*,#151,.T.);
#196=ORIENTED_EDGE('',*,*,#150,.T.);
#197=ORIENTED_EDGE('',*,*,#141,.F.);
#198=ORIENTED_EDGE('',*,*,#146,.F.);
#199=ORIENTED_EDGE('',*,*,#152,.T.);
#200=ORIENTED_EDGE('',*,*,#153,.T.);
#201=ORIENTED_EDGE('',*,*,#154,.T.);
#202=ORIENTED_EDGE('',*,*,#155,.T.);
#203=ORIENTED_EDGE('',*,*,#156,.T.);
#204=ORIENTED_EDGE('',*,*,#157,.F.);
#205=ORIENTED_EDGE('',*,*,#158,.F.);
#206=ORIENTED_EDGE('',*,*,#159,.T.);
#207=ORIENTED_EDGE('',*,*,#156,.F.);
#208=ORIENTED_EDGE('',*,*,#159,.F.);
#209=ORIENTED_EDGE('',*,*,#160,.F.);
#210=ORIENTED_EDGE('',*,*,#161,.F.);
#211=ORIENTED_EDGE('',*,*,#162,.T.);
#212=ORIENTED_EDGE('',*,*,#163,.F.);
#213=ORIENTED_EDGE('',*,*,#164,.F.);
#214=ORIENTED_EDGE('',*,*,#144,.T.);
#215=ORIENTED_EDGE('',*,*,#139,.T.);
#216=ORIENTED_EDGE('',*,*,#135,.T.);
#217=ORIENTED_EDGE('',*,*,#165,.F.);
#218=ORIENTED_EDGE('',*,*,#166,.F.);
#219=ORIENTED_EDGE('',*,*,#167,.F.);
#220=ORIENTED_EDGE('',*,*,#168,.F.);
#221=ORIENTED_EDGE('',*,*,#162,.F.);
#222=ORIENTED_EDGE('',*,*,#163,.T.);
#223=ORIENTED_EDGE('',*,*,#168,.T.);
#224=ORIENTED_EDGE('',*,*,#169,.F.);
#225=ORIENTED_EDGE('',*,*,#153,.F.);
#226=ORIENTED_EDGE('',*,*,#170,.T.);
#227=ORIENTED_EDGE('',*,*,#167,.T.);
#228=ORIENTED_EDGE('',*,*,#171,.F.);
#229=ORIENTED_EDGE('',*,*,#154,.F.);
#230=ORIENTED_EDGE('',*,*,#169,.T.);
#231=ORIENTED_EDGE('',*,*,#166,.T.);
#232=ORIENTED_EDGE('',*,*,#172,.F.);
#233=ORIENTED_EDGE('',*,*,#155,.F.);
#234=ORIENTED_EDGE('',*,*,#171,.T.);
#235=ORIENTED_EDGE('',*,*,#152,.F.);
#236=ORIENTED_EDGE('',*,*,#172,.T.);
#237=ORIENTED_EDGE('',*,*,#165,.T.);
#238=ORIENTED_EDGE('',*,*,#138,.F.);
#239=ORIENTED_EDGE('',*,*,#147,.F.);
#240=ORIENTED_EDGE('',*,*,#149,.F.);
#241=ORIENTED_EDGE('',*,*,#151,.F.);
#242=ORIENTED_EDGE('',*,*,#145,.F.);
#243=ORIENTED_EDGE('',*,*,#164,.T.);
#244=ORIENTED_EDGE('',*,*,#170,.F.);
#245=ORIENTED_EDGE('',*,*,#160,.T.);
#246=ORIENTED_EDGE('',*,*,#161,.T.);
#247=ORIENTED_EDGE('',*,*,#157,.T.);
#248=ORIENTED_EDGE('',*,*,#158,.T.);
#249=PLANE('',#293);
#250=PLANE('',#294);
#251=PLANE('',#297);
#252=PLANE('',#300);
#253=PLANE('',#303);
#254=PLANE('',#311);
#255=PLANE('',#312);
#256=PLANE('',#313);
#257=PLANE('',#314);
#258=PLANE('',#315);
#259=ADVANCED_FACE('',(#30),#249,.T.);
#260=ADVANCED_FACE('',(#31),#250,.T.);
#261=ADVANCED_FACE('',(#32),#251,.T.);
#262=ADVANCED_FACE('',(#33),#18,.T.);
#263=ADVANCED_FACE('',(#34),#252,.T.);
#264=ADVANCED_FACE('',(#35),#19,.T.);
#265=ADVANCED_FACE('',(#36,#16),#253,.F.);
#266=ADVANCED_FACE('',(#37),#20,.F.);
#267=ADVANCED_FACE('',(#38),#15,.T.);
#268=ADVANCED_FACE('',(#39),#254,.T.);
#269=ADVANCED_FACE('',(#40),#255,.T.);
#270=ADVANCED_FACE('',(#41),#256,.T.);
#271=ADVANCED_FACE('',(#42),#257,.T.);
#272=ADVANCED_FACE('',(#43,#17),#258,.T.);
#273=CLOSED_SHELL('',(#259,#260,#261,#262,#263,#264,#265,#266,#267,#268,
#269,#270,#271,#272));
#274=DERIVED_UNIT_ELEMENT(#276,1.);
#275=DERIVED_UNIT_ELEMENT(#486,3.);
#276=(
MASS_UNIT()
NAMED_UNIT(*)
SI_UNIT($,.GRAM.)
);
#277=DERIVED_UNIT((#274,#275));
#278=MEASURE_REPRESENTATION_ITEM('density measure',
POSITIVE_RATIO_MEASURE(7.85),#277);
#279=PROPERTY_DEFINITION_REPRESENTATION(#284,#281);
#280=PROPERTY_DEFINITION_REPRESENTATION(#285,#282);
#281=REPRESENTATION('material name',(#283),#483);
#282=REPRESENTATION('density',(#278),#483);
#283=DESCRIPTIVE_REPRESENTATION_ITEM('Ocel zinkovan\X\E1',
'Ocel zinkovan\X\E1');
#284=PROPERTY_DEFINITION('material property','material name',#493);
#285=PROPERTY_DEFINITION('material property','density of part',#493);
#286=DATE_TIME_ROLE('creation_date');
#287=CC_DESIGN_DATE_AND_TIME_ASSIGNMENT(#288,#286,(#493));
#288=DATE_AND_TIME(#289,#290);
#289=CALENDAR_DATE(2014,3,1);
#290=LOCAL_TIME(0,0,0.,#291);
#291=COORDINATED_UNIVERSAL_TIME_OFFSET(0,0,.BEHIND.);
#292=AXIS2_PLACEMENT_3D('placement',#384,#316,#317);
#293=AXIS2_PLACEMENT_3D('',#385,#318,#319);
#294=AXIS2_PLACEMENT_3D('',#396,#323,#324);
#295=AXIS2_PLACEMENT_3D('',#404,#326,#327);
#296=AXIS2_PLACEMENT_3D('',#407,#329,#330);
#297=AXIS2_PLACEMENT_3D('',#408,#331,#332);
#298=AXIS2_PLACEMENT_3D('',#416,#335,#336);
#299=AXIS2_PLACEMENT_3D('',#418,#337,#338);
#300=AXIS2_PLACEMENT_3D('',#420,#340,#341);
#301=AXIS2_PLACEMENT_3D('',#424,#344,#345);
#302=AXIS2_PLACEMENT_3D('',#425,#346,#347);
#303=AXIS2_PLACEMENT_3D('',#426,#348,#349);
#304=AXIS2_PLACEMENT_3D('',#436,#354,#355);
#305=AXIS2_PLACEMENT_3D('',#437,#356,#357);
#306=AXIS2_PLACEMENT_3D('',#440,#358,#359);
#307=AXIS2_PLACEMENT_3D('',#441,#360,#361);
#308=AXIS2_PLACEMENT_3D('',#443,#363,#364);
#309=AXIS2_PLACEMENT_3D('',#446,#365,#366);
#310=AXIS2_PLACEMENT_3D('',#447,#367,#368);
#311=AXIS2_PLACEMENT_3D('',#472,#370,#371);
#312=AXIS2_PLACEMENT_3D('',#475,#374,#375);
#313=AXIS2_PLACEMENT_3D('',#477,#377,#378);
#314=AXIS2_PLACEMENT_3D('',#479,#380,#381);
#315=AXIS2_PLACEMENT_3D('',#480,#382,#383);
#316=DIRECTION('axis',(0.,0.,1.));
#317=DIRECTION('refdir',(1.,0.,0.));
#318=DIRECTION('center_axis',(8.88178419700125E-17,1.,1.77401254092954E-47));
#319=DIRECTION('ref_axis',(-1.,8.88178419700125E-17,-1.99736055457022E-31));
#320=DIRECTION('',(-1.,8.88178419700125E-17,-1.99736055457022E-31));
#321=DIRECTION('',(-1.99736055457022E-31,0.,1.));
#322=DIRECTION('',(-1.,8.88178419700125E-17,-1.99736055457022E-31));
#323=DIRECTION('center_axis',(-1.99736055457022E-31,3.69729953066504E-32,
1.));
#324=DIRECTION('ref_axis',(1.,0.,1.99736055457022E-31));
#325=DIRECTION('',(1.,-2.66453525910038E-16,1.99736055457022E-31));
#326=DIRECTION('center_axis',(-1.99736055457022E-31,3.69729953066503E-32,
1.));
#327=DIRECTION('ref_axis',(3.67959631018623E-16,-1.,3.69729953066504E-32));
#328=DIRECTION('',(2.66453525910038E-16,1.,-3.69729953066503E-32));
#329=DIRECTION('center_axis',(-1.99736055457022E-31,3.69729953066503E-32,
1.));
#330=DIRECTION('ref_axis',(1.,5.07530525542928E-17,1.99736055457022E-31));
#331=DIRECTION('center_axis',(-2.66453525910038E-16,-1.,-5.32203762278863E-47));
#332=DIRECTION('ref_axis',(1.,-2.66453525910038E-16,1.99736055457022E-31));
#333=DIRECTION('',(1.,-2.66453525910038E-16,1.99736055457022E-31));
#334=DIRECTION('',(-1.99736055457022E-31,0.,1.));
#335=DIRECTION('center_axis',(-1.99736055457022E-31,0.,1.));
#336=DIRECTION('ref_axis',(1.,5.07530525542928E-17,1.99736055457022E-31));
#337=DIRECTION('center_axis',(-1.99736055457022E-31,3.69729953066503E-32,
1.));
#338=DIRECTION('ref_axis',(1.,5.07530525542928E-17,1.99736055457022E-31));
#339=DIRECTION('',(-1.99736055457022E-31,0.,1.));
#340=DIRECTION('center_axis',(1.,-2.66453525910038E-16,1.99736055457022E-31));
#341=DIRECTION('ref_axis',(2.66453525910038E-16,1.,-3.69729953066503E-32));
#342=DIRECTION('',(2.66453525910038E-16,1.,-3.69729953066503E-32));
#343=DIRECTION('',(-1.99736055457022E-31,0.,1.));
#344=DIRECTION('center_axis',(-1.99736055457022E-31,0.,1.));
#345=DIRECTION('ref_axis',(3.67959631018623E-16,-1.,7.03777130520276E-47));
#346=DIRECTION('center_axis',(-1.99736055457022E-31,3.69729953066503E-32,
1.));
#347=DIRECTION('ref_axis',(3.67959631018623E-16,-1.,3.69729953066504E-32));
#348=DIRECTION('center_axis',(1.,0.,0.));
#349=DIRECTION('ref_axis',(0.,0.,-1.));
#350=DIRECTION('',(0.,-1.,0.));
#351=DIRECTION('',(0.,0.,1.));
#352=DIRECTION('',(0.,1.,0.));
#353=DIRECTION('',(0.,0.,-1.));
#354=DIRECTION('center_axis',(1.,0.,0.));
#355=DIRECTION('ref_axis',(0.,0.,-1.));
#356=DIRECTION('center_axis',(1.,0.,0.));
#357=DIRECTION('ref_axis',(0.,0.,-1.));
#358=DIRECTION('center_axis',(-1.,0.,0.));
#359=DIRECTION('ref_axis',(0.,0.,-1.));
#360=DIRECTION('center_axis',(-1.,0.,0.));
#361=DIRECTION('ref_axis',(0.,0.,-1.));
#362=DIRECTION('',(-1.,0.,0.));
#363=DIRECTION('center_axis',(-1.,0.,0.));
#364=DIRECTION('ref_axis',(0.,1.,0.));
#365=DIRECTION('center_axis',(1.,0.,0.));
#366=DIRECTION('ref_axis',(0.,1.,0.));
#367=DIRECTION('center_axis',(1.,0.,0.));
#368=DIRECTION('ref_axis',(0.,1.,0.));
#369=DIRECTION('',(-0.707106781186548,-0.707106781186547,8.65956056235493E-17));
#370=DIRECTION('center_axis',(0.,-1.,0.));
#371=DIRECTION('ref_axis',(0.,0.,-1.));
#372=DIRECTION('',(1.,0.,0.));
#373=DIRECTION('',(1.,0.,0.));
#374=DIRECTION('center_axis',(0.,0.,1.));
#375=DIRECTION('ref_axis',(1.,0.,0.));
#376=DIRECTION('',(1.,0.,0.));
#377=DIRECTION('center_axis',(0.,1.,0.));
#378=DIRECTION('ref_axis',(0.,0.,1.));
#379=DIRECTION('',(1.,0.,0.));
#380=DIRECTION('center_axis',(0.,0.,-1.));
#381=DIRECTION('ref_axis',(-1.,0.,0.));
#382=DIRECTION('center_axis',(1.,0.,0.));
#383=DIRECTION('ref_axis',(0.,0.,-1.));
#384=CARTESIAN_POINT('',(0.,0.,0.));
#385=CARTESIAN_POINT('Origin',(12.5,6.,-6.5));
#386=CARTESIAN_POINT('',(2.66144242537279,6.,-6.49));
#387=CARTESIAN_POINT('',(2.65409699352293,6.,-6.5));
#388=CARTESIAN_POINT('Ctrl Pts',(2.66144242537279,6.,-6.49));
#389=CARTESIAN_POINT('Ctrl Pts',(2.65777253678938,6.,-6.4949979231952));
#390=CARTESIAN_POINT('Ctrl Pts',(2.65409699352293,6.,-6.5));
#391=CARTESIAN_POINT('',(12.5,6.,-6.49));
#392=CARTESIAN_POINT('',(12.5,6.,-6.49));
#393=CARTESIAN_POINT('',(12.5,6.,-6.5));
#394=CARTESIAN_POINT('',(12.5,6.,-6.5));
#395=CARTESIAN_POINT('',(12.5,6.,-6.5));
#396=CARTESIAN_POINT('Origin',(7.11904773300614,-6.62863501914177E-16,-6.49));
#397=CARTESIAN_POINT('',(2.66144242537279,-6.,-6.49));
#398=CARTESIAN_POINT('Ctrl Pts',(2.66144242537279,-6.,-6.49));
#399=CARTESIAN_POINT('Ctrl Pts',(6.73450521825811,6.43929354282591E-14,
-6.49));
#400=CARTESIAN_POINT('Ctrl Pts',(2.66144242537279,6.,-6.49));
#401=CARTESIAN_POINT('',(12.5,-6.,-6.49));
#402=CARTESIAN_POINT('',(-1.99736055457E-33,-6.,-6.49));
#403=CARTESIAN_POINT('',(16.,-2.5,-6.49));
#404=CARTESIAN_POINT('Origin',(12.5,-2.5,-6.49));
#405=CARTESIAN_POINT('',(16.,2.5,-6.49));
#406=CARTESIAN_POINT('',(16.,-2.5,-6.49));
#407=CARTESIAN_POINT('Origin',(12.5,2.5,-6.49));
#408=CARTESIAN_POINT('Origin',(2.21751567616193E-46,-6.,-6.5));
#409=CARTESIAN_POINT('',(2.65409699352293,-6.,-6.5));
#410=CARTESIAN_POINT('Ctrl Pts',(2.65409699352293,-6.,-6.5));
#411=CARTESIAN_POINT('Ctrl Pts',(2.65777253678835,-6.,-6.49499792319662));
#412=CARTESIAN_POINT('Ctrl Pts',(2.66144242537279,-6.,-6.49));
#413=CARTESIAN_POINT('',(12.5,-6.,-6.5));
#414=CARTESIAN_POINT('',(2.21751567616193E-46,-6.,-6.5));
#415=CARTESIAN_POINT('',(12.5,-6.,-6.5));
#416=CARTESIAN_POINT('Origin',(12.5,2.5,-6.5));
#417=CARTESIAN_POINT('',(16.,2.5,-6.5));
#418=CARTESIAN_POINT('Origin',(12.5,2.5,-6.5));
#419=CARTESIAN_POINT('',(16.,2.5,-6.5));
#420=CARTESIAN_POINT('Origin',(16.,-2.5,-6.5));
#421=CARTESIAN_POINT('',(16.,-2.5,-6.5));
#422=CARTESIAN_POINT('',(16.,-2.5,-6.5));
#423=CARTESIAN_POINT('',(16.,-2.5,-6.5));
#424=CARTESIAN_POINT('Origin',(12.5,-2.5,-6.5));
#425=CARTESIAN_POINT('Origin',(12.5,-2.5,-6.5));
#426=CARTESIAN_POINT('Origin',(0.,0.,4.54182146437564E-16));
#427=CARTESIAN_POINT('',(0.,6.5,-6.5));
#428=CARTESIAN_POINT('',(0.,-6.5,-6.5));
#429=CARTESIAN_POINT('',(0.,6.5,-6.5));
#430=CARTESIAN_POINT('',(0.,-6.5,6.5));
#431=CARTESIAN_POINT('',(0.,-6.5,-6.5));
#432=CARTESIAN_POINT('',(0.,6.5,6.5));
#433=CARTESIAN_POINT('',(0.,-6.5,6.5));
#434=CARTESIAN_POINT('',(0.,6.5,6.5));
#435=CARTESIAN_POINT('',(0.,-2.53134493383758E-16,2.067));
#436=CARTESIAN_POINT('Origin',(0.,0.,0.));
#437=CARTESIAN_POINT('Origin',(-13.6382925992076,0.,0.));
#438=CARTESIAN_POINT('',(6.,0.,-2.067));
#439=CARTESIAN_POINT('',(6.,-2.53134493383758E-16,2.067));
#440=CARTESIAN_POINT('Origin',(6.,0.,0.));
#441=CARTESIAN_POINT('Origin',(6.,0.,0.));
#442=CARTESIAN_POINT('',(-13.6382925992076,-2.53134493383758E-16,2.067));
#443=CARTESIAN_POINT('Origin',(5.5,0.,0.));
#444=CARTESIAN_POINT('',(6.,5.5,0.));
#445=CARTESIAN_POINT('',(6.,-5.5,6.73555739531044E-16));
#446=CARTESIAN_POINT('Origin',(6.,0.,0.));
#447=CARTESIAN_POINT('Origin',(6.,0.,0.));
#448=CARTESIAN_POINT('',(4.99999999997616,-6.5,8.42099419572952E-16));
#449=CARTESIAN_POINT('',(5.5,-6.,7.34788079488412E-16));
#450=CARTESIAN_POINT('',(2.30761184457488,-6.5,-6.5));
#451=CARTESIAN_POINT('Ctrl Pts',(2.30761184457488,-6.5,-6.5));
#452=CARTESIAN_POINT('Ctrl Pts',(4.99999999996842,-6.5,-2.69238815541996));
#453=CARTESIAN_POINT('Ctrl Pts',(4.99999999997616,-6.5,8.88178419700125E-16));
#454=CARTESIAN_POINT('Ctrl Pts',(2.65409699352171,-6.,-6.5));
#455=CARTESIAN_POINT('Ctrl Pts',(2.48778412202727,-6.24519792166236,-6.5));
#456=CARTESIAN_POINT('Ctrl Pts',(2.30761184457488,-6.5,-6.5));
#457=CARTESIAN_POINT('',(2.30761184457488,6.5,-6.5));
#458=CARTESIAN_POINT('Ctrl Pts',(2.30761184457488,6.5,-6.5));
#459=CARTESIAN_POINT('Ctrl Pts',(2.4877841220255,6.24519792166235,-6.5));
#460=CARTESIAN_POINT('Ctrl Pts',(2.65409699351845,6.,-6.5));
#461=CARTESIAN_POINT('',(2.30761184457488,6.5,6.5));
#462=CARTESIAN_POINT('Ctrl Pts',(2.30761184457488,6.5,6.5));
#463=CARTESIAN_POINT('Ctrl Pts',(6.90380592224986,6.5,-3.18944870514315E-11));
#464=CARTESIAN_POINT('Ctrl Pts',(2.30761184457488,6.5,-6.5));
#465=CARTESIAN_POINT('',(2.30761184457488,-6.5,6.5));
#466=CARTESIAN_POINT('Ctrl Pts',(2.30761184457488,-6.5,6.5));
#467=CARTESIAN_POINT('Ctrl Pts',(6.90380592224986,3.18933768284069E-11,
6.5));
#468=CARTESIAN_POINT('Ctrl Pts',(2.30761184457488,6.5,6.5));
#469=CARTESIAN_POINT('Ctrl Pts',(4.99999999997616,-6.5,8.88178419700125E-16));
#470=CARTESIAN_POINT('Ctrl Pts',(4.9999999999839,-6.5,2.69238815543543));
#471=CARTESIAN_POINT('Ctrl Pts',(2.30761184457488,-6.5,6.5));
#472=CARTESIAN_POINT('Origin',(0.,-6.5,-6.5));
#473=CARTESIAN_POINT('',(0.,-6.5,6.5));
#474=CARTESIAN_POINT('',(0.,-6.5,-6.5));
#475=CARTESIAN_POINT('Origin',(0.,-6.5,6.5));
#476=CARTESIAN_POINT('',(0.,6.5,6.5));
#477=CARTESIAN_POINT('Origin',(0.,6.5,6.5));
#478=CARTESIAN_POINT('',(0.,6.5,-6.5));
#479=CARTESIAN_POINT('Origin',(0.,6.5,-6.5));
#480=CARTESIAN_POINT('Origin',(6.,0.,6.81273219656346E-16));
#481=UNCERTAINTY_MEASURE_WITH_UNIT(LENGTH_MEASURE(0.01),#485,
'DISTANCE_ACCURACY_VALUE',
'Maximum model space distance between geometric entities at asserted c
onnectivities');
#482=UNCERTAINTY_MEASURE_WITH_UNIT(LENGTH_MEASURE(0.01),#485,
'DISTANCE_ACCURACY_VALUE',
'Maximum model space distance between geometric entities at asserted c
onnectivities');
#483=(
GEOMETRIC_REPRESENTATION_CONTEXT(3)
GLOBAL_UNCERTAINTY_ASSIGNED_CONTEXT((#481))
GLOBAL_UNIT_ASSIGNED_CONTEXT((#485,#487,#488))
REPRESENTATION_CONTEXT('','3D')
);
#484=(
GEOMETRIC_REPRESENTATION_CONTEXT(3)
GLOBAL_UNCERTAINTY_ASSIGNED_CONTEXT((#482))
GLOBAL_UNIT_ASSIGNED_CONTEXT((#485,#487,#488))
REPRESENTATION_CONTEXT('','3D')
);
#485=(
LENGTH_UNIT()
NAMED_UNIT(*)
SI_UNIT(.MILLI.,.METRE.)
);
#486=(
LENGTH_UNIT()
NAMED_UNIT(*)
SI_UNIT(.CENTI.,.METRE.)
);
#487=(
NAMED_UNIT(*)
PLANE_ANGLE_UNIT()
SI_UNIT($,.RADIAN.)
);
#488=(
NAMED_UNIT(*)
SI_UNIT($,.STERADIAN.)
SOLID_ANGLE_UNIT()
);
#489=SHAPE_DEFINITION_REPRESENTATION(#490,#491);
#490=PRODUCT_DEFINITION_SHAPE('',$,#493);
#491=SHAPE_REPRESENTATION('',(#292),#483);
#492=DESIGN_CONTEXT('part definition',#497,'design');
#493=PRODUCT_DEFINITION('210502-ZP','210502-ZP',#494,#492);
#494=PRODUCT_DEFINITION_FORMATION('',$,#499);
#495=PRODUCT_RELATED_PRODUCT_CATEGORY('210502-ZP','210502-ZP',(#499));
#496=APPLICATION_PROTOCOL_DEFINITION('international standard',
'ap203_configuration_controlled_3d_design_of_mechanical_parts_and_asse
mblies_mim_lf',2004,#497);
#497=APPLICATION_CONTEXT(
'Configuration Controlled 3D Design of Mechanical Parts and Assemblies');
#498=MECHANICAL_CONTEXT('part definition',#497,'mechanical');
#499=PRODUCT('210502-ZP','210502-ZP','Nakr\X2\0119\X0\tka M5 ze spr\X2\0119017C\X0\y
n\X2\0105\X0\ 45-8',(#498));
#500=PRESENTATION_STYLE_ASSIGNMENT((#501));
#501=SURFACE_STYLE_USAGE(.BOTH.,#504);
#502=SURFACE_STYLE_RENDERING_WITH_PROPERTIES($,#508,(#503));
#503=SURFACE_STYLE_TRANSPARENT(0.);
#504=SURFACE_SIDE_STYLE('',(#505,#502));
#505=SURFACE_STYLE_FILL_AREA(#506);
#506=FILL_AREA_STYLE('',(#507));
#507=FILL_AREA_STYLE_COLOUR('',#508);
#508=COLOUR_RGB('',0.501960784313725,0.501960784313725,0.501960784313725);
ENDSEC;
END-ISO-10303-21;
