ISO-10303-21;
HEADER;
/* Generated by software containing ST-Developer
 * from STEP Tools, Inc. (www.steptools.com) 
 */

FILE_DESCRIPTION(
/* description */ ('Maticov\X\FD profil pro modul 40'),
/* implementation_level */ '2;1');

FILE_NAME(
/* name */ 
'C:\\InventorWorking - Vault\\Projects\\Alutec\\ZWYMIAROWANE PRODUKTY\\
UZUPELNIENIE BRAKOW\\ELEMENTY ZLACZNE\\210000.stp',
/* time_stamp */ '2022-09-20T13:16:40+02:00',
/* author */ ('aluteckkpl_tw'),
/* organization */ (''),
/* preprocessor_version */ 'ST-DEVELOPER v18.1',
/* originating_system */ 'Autodesk Inventor 2021',
/* authorisation */ '');

FILE_SCHEMA (('AUTOMOTIVE_DESIGN { 1 0 10303 214 3 1 1 }'));
ENDSEC;

DATA;
#10=MECHANICAL_DESIGN_GEOMETRIC_PRESENTATION_REPRESENTATION('',(#13),#325);
#11=SHAPE_REPRESENTATION_RELATIONSHIP('SRR','None',#332,#12);
#12=ADVANCED_BREP_SHAPE_REPRESENTATION('',(#14),#324);
#13=STYLED_ITEM('',(#341),#14);
#14=MANIFOLD_SOLID_BREP('T\X2\011B\X0\leso1',#187);
#15=CIRCLE('',#209,20.0124066939012);
#16=CIRCLE('',#210,20.0124066939012);
#17=CIRCLE('',#217,20.012406693901);
#18=CIRCLE('',#218,20.012406693901);
#19=CYLINDRICAL_SURFACE('',#208,20.0124066939012);
#20=CYLINDRICAL_SURFACE('',#216,20.012406693901);
#21=FACE_OUTER_BOUND('',#31,.T.);
#22=FACE_OUTER_BOUND('',#32,.T.);
#23=FACE_OUTER_BOUND('',#33,.T.);
#24=FACE_OUTER_BOUND('',#34,.T.);
#25=FACE_OUTER_BOUND('',#35,.T.);
#26=FACE_OUTER_BOUND('',#36,.T.);
#27=FACE_OUTER_BOUND('',#37,.T.);
#28=FACE_OUTER_BOUND('',#38,.T.);
#29=FACE_OUTER_BOUND('',#39,.T.);
#30=FACE_OUTER_BOUND('',#40,.T.);
#31=EDGE_LOOP('',(#121,#122,#123,#124));
#32=EDGE_LOOP('',(#125,#126,#127,#128));
#33=EDGE_LOOP('',(#129,#130,#131,#132));
#34=EDGE_LOOP('',(#133,#134,#135,#136));
#35=EDGE_LOOP('',(#137,#138,#139,#140));
#36=EDGE_LOOP('',(#141,#142,#143,#144));
#37=EDGE_LOOP('',(#145,#146,#147,#148));
#38=EDGE_LOOP('',(#149,#150,#151,#152));
#39=EDGE_LOOP('',(#153,#154,#155,#156,#157,#158,#159,#160));
#40=EDGE_LOOP('',(#161,#162,#163,#164,#165,#166,#167,#168));
#41=LINE('',#275,#61);
#42=LINE('',#277,#62);
#43=LINE('',#279,#63);
#44=LINE('',#280,#64);
#45=LINE('',#285,#65);
#46=LINE('',#289,#66);
#47=LINE('',#291,#67);
#48=LINE('',#292,#68);
#49=LINE('',#295,#69);
#50=LINE('',#297,#70);
#51=LINE('',#298,#71);
#52=LINE('',#301,#72);
#53=LINE('',#303,#73);
#54=LINE('',#304,#74);
#55=LINE('',#307,#75);
#56=LINE('',#309,#76);
#57=LINE('',#310,#77);
#58=LINE('',#313,#78);
#59=LINE('',#315,#79);
#60=LINE('',#316,#80);
#61=VECTOR('',#225,10.);
#62=VECTOR('',#226,10.);
#63=VECTOR('',#227,10.);
#64=VECTOR('',#228,10.);
#65=VECTOR('',#233,10.);
#66=VECTOR('',#238,10.);
#67=VECTOR('',#239,10.);
#68=VECTOR('',#240,10.);
#69=VECTOR('',#243,10.);
#70=VECTOR('',#244,10.);
#71=VECTOR('',#245,10.);
#72=VECTOR('',#248,10.);
#73=VECTOR('',#249,10.);
#74=VECTOR('',#250,10.);
#75=VECTOR('',#253,10.);
#76=VECTOR('',#254,10.);
#77=VECTOR('',#255,10.);
#78=VECTOR('',#258,10.);
#79=VECTOR('',#259,10.);
#80=VECTOR('',#260,10.);
#81=VERTEX_POINT('',#273);
#82=VERTEX_POINT('',#274);
#83=VERTEX_POINT('',#276);
#84=VERTEX_POINT('',#278);
#85=VERTEX_POINT('',#282);
#86=VERTEX_POINT('',#284);
#87=VERTEX_POINT('',#288);
#88=VERTEX_POINT('',#290);
#89=VERTEX_POINT('',#294);
#90=VERTEX_POINT('',#296);
#91=VERTEX_POINT('',#300);
#92=VERTEX_POINT('',#302);
#93=VERTEX_POINT('',#306);
#94=VERTEX_POINT('',#308);
#95=VERTEX_POINT('',#312);
#96=VERTEX_POINT('',#314);
#97=EDGE_CURVE('',#81,#82,#41,.T.);
#98=EDGE_CURVE('',#83,#82,#42,.T.);
#99=EDGE_CURVE('',#84,#83,#43,.T.);
#100=EDGE_CURVE('',#84,#81,#44,.T.);
#101=EDGE_CURVE('',#82,#85,#15,.T.);
#102=EDGE_CURVE('',#86,#85,#45,.T.);
#103=EDGE_CURVE('',#83,#86,#16,.T.);
#104=EDGE_CURVE('',#85,#87,#46,.T.);
#105=EDGE_CURVE('',#88,#87,#47,.T.);
#106=EDGE_CURVE('',#86,#88,#48,.T.);
#107=EDGE_CURVE('',#87,#89,#49,.T.);
#108=EDGE_CURVE('',#90,#89,#50,.T.);
#109=EDGE_CURVE('',#88,#90,#51,.T.);
#110=EDGE_CURVE('',#89,#91,#52,.T.);
#111=EDGE_CURVE('',#92,#91,#53,.T.);
#112=EDGE_CURVE('',#90,#92,#54,.T.);
#113=EDGE_CURVE('',#91,#93,#55,.T.);
#114=EDGE_CURVE('',#94,#93,#56,.T.);
#115=EDGE_CURVE('',#92,#94,#57,.T.);
#116=EDGE_CURVE('',#93,#95,#58,.T.);
#117=EDGE_CURVE('',#96,#95,#59,.T.);
#118=EDGE_CURVE('',#94,#96,#60,.T.);
#119=EDGE_CURVE('',#95,#81,#17,.T.);
#120=EDGE_CURVE('',#96,#84,#18,.T.);
#121=ORIENTED_EDGE('',*,*,#97,.T.);
#122=ORIENTED_EDGE('',*,*,#98,.F.);
#123=ORIENTED_EDGE('',*,*,#99,.F.);
#124=ORIENTED_EDGE('',*,*,#100,.T.);
#125=ORIENTED_EDGE('',*,*,#101,.T.);
#126=ORIENTED_EDGE('',*,*,#102,.F.);
#127=ORIENTED_EDGE('',*,*,#103,.F.);
#128=ORIENTED_EDGE('',*,*,#98,.T.);
#129=ORIENTED_EDGE('',*,*,#104,.T.);
#130=ORIENTED_EDGE('',*,*,#105,.F.);
#131=ORIENTED_EDGE('',*,*,#106,.F.);
#132=ORIENTED_EDGE('',*,*,#102,.T.);
#133=ORIENTED_EDGE('',*,*,#107,.T.);
#134=ORIENTED_EDGE('',*,*,#108,.F.);
#135=ORIENTED_EDGE('',*,*,#109,.F.);
#136=ORIENTED_EDGE('',*,*,#105,.T.);
#137=ORIENTED_EDGE('',*,*,#110,.T.);
#138=ORIENTED_EDGE('',*,*,#111,.F.);
#139=ORIENTED_EDGE('',*,*,#112,.F.);
#140=ORIENTED_EDGE('',*,*,#108,.T.);
#141=ORIENTED_EDGE('',*,*,#113,.T.);
#142=ORIENTED_EDGE('',*,*,#114,.F.);
#143=ORIENTED_EDGE('',*,*,#115,.F.);
#144=ORIENTED_EDGE('',*,*,#111,.T.);
#145=ORIENTED_EDGE('',*,*,#116,.T.);
#146=ORIENTED_EDGE('',*,*,#117,.F.);
#147=ORIENTED_EDGE('',*,*,#118,.F.);
#148=ORIENTED_EDGE('',*,*,#114,.T.);
#149=ORIENTED_EDGE('',*,*,#119,.T.);
#150=ORIENTED_EDGE('',*,*,#100,.F.);
#151=ORIENTED_EDGE('',*,*,#120,.F.);
#152=ORIENTED_EDGE('',*,*,#117,.T.);
#153=ORIENTED_EDGE('',*,*,#110,.F.);
#154=ORIENTED_EDGE('',*,*,#107,.F.);
#155=ORIENTED_EDGE('',*,*,#104,.F.);
#156=ORIENTED_EDGE('',*,*,#101,.F.);
#157=ORIENTED_EDGE('',*,*,#97,.F.);
#158=ORIENTED_EDGE('',*,*,#119,.F.);
#159=ORIENTED_EDGE('',*,*,#116,.F.);
#160=ORIENTED_EDGE('',*,*,#113,.F.);
#161=ORIENTED_EDGE('',*,*,#112,.T.);
#162=ORIENTED_EDGE('',*,*,#115,.T.);
#163=ORIENTED_EDGE('',*,*,#118,.T.);
#164=ORIENTED_EDGE('',*,*,#120,.T.);
#165=ORIENTED_EDGE('',*,*,#99,.T.);
#166=ORIENTED_EDGE('',*,*,#103,.T.);
#167=ORIENTED_EDGE('',*,*,#106,.T.);
#168=ORIENTED_EDGE('',*,*,#109,.T.);
#169=PLANE('',#207);
#170=PLANE('',#211);
#171=PLANE('',#212);
#172=PLANE('',#213);
#173=PLANE('',#214);
#174=PLANE('',#215);
#175=PLANE('',#219);
#176=PLANE('',#220);
#177=ADVANCED_FACE('',(#21),#169,.T.);
#178=ADVANCED_FACE('',(#22),#19,.T.);
#179=ADVANCED_FACE('',(#23),#170,.T.);
#180=ADVANCED_FACE('',(#24),#171,.T.);
#181=ADVANCED_FACE('',(#25),#172,.T.);
#182=ADVANCED_FACE('',(#26),#173,.T.);
#183=ADVANCED_FACE('',(#27),#174,.T.);
#184=ADVANCED_FACE('',(#28),#20,.T.);
#185=ADVANCED_FACE('',(#29),#175,.T.);
#186=ADVANCED_FACE('',(#30),#176,.F.);
#187=CLOSED_SHELL('',(#177,#178,#179,#180,#181,#182,#183,#184,#185,#186));
#188=DERIVED_UNIT_ELEMENT(#190,1.);
#189=DERIVED_UNIT_ELEMENT(#327,3.);
#190=(
MASS_UNIT()
NAMED_UNIT(*)
SI_UNIT($,.GRAM.)
);
#191=DERIVED_UNIT((#188,#189));
#192=MEASURE_REPRESENTATION_ITEM('density measure',
POSITIVE_RATIO_MEASURE(7.85),#191);
#193=PROPERTY_DEFINITION_REPRESENTATION(#198,#195);
#194=PROPERTY_DEFINITION_REPRESENTATION(#199,#196);
#195=REPRESENTATION('material name',(#197),#324);
#196=REPRESENTATION('density',(#192),#324);
#197=DESCRIPTIVE_REPRESENTATION_ITEM('Ocel pozinkovan\X\E1',
'Ocel pozinkovan\X\E1');
#198=PROPERTY_DEFINITION('material property','material name',#334);
#199=PROPERTY_DEFINITION('material property','density of part',#334);
#200=DATE_TIME_ROLE('creation_date');
#201=APPLIED_DATE_AND_TIME_ASSIGNMENT(#202,#200,(#334));
#202=DATE_AND_TIME(#203,#204);
#203=CALENDAR_DATE(2020,5,3);
#204=LOCAL_TIME(0,0,0.,#205);
#205=COORDINATED_UNIVERSAL_TIME_OFFSET(0,0,.BEHIND.);
#206=AXIS2_PLACEMENT_3D('placement',#271,#221,#222);
#207=AXIS2_PLACEMENT_3D('',#272,#223,#224);
#208=AXIS2_PLACEMENT_3D('',#281,#229,#230);
#209=AXIS2_PLACEMENT_3D('',#283,#231,#232);
#210=AXIS2_PLACEMENT_3D('',#286,#234,#235);
#211=AXIS2_PLACEMENT_3D('',#287,#236,#237);
#212=AXIS2_PLACEMENT_3D('',#293,#241,#242);
#213=AXIS2_PLACEMENT_3D('',#299,#246,#247);
#214=AXIS2_PLACEMENT_3D('',#305,#251,#252);
#215=AXIS2_PLACEMENT_3D('',#311,#256,#257);
#216=AXIS2_PLACEMENT_3D('',#317,#261,#262);
#217=AXIS2_PLACEMENT_3D('',#318,#263,#264);
#218=AXIS2_PLACEMENT_3D('',#319,#265,#266);
#219=AXIS2_PLACEMENT_3D('',#320,#267,#268);
#220=AXIS2_PLACEMENT_3D('',#321,#269,#270);
#221=DIRECTION('axis',(0.,0.,1.));
#222=DIRECTION('refdir',(1.,0.,0.));
#223=DIRECTION('center_axis',(8.88178419700127E-16,-1.,0.));
#224=DIRECTION('ref_axis',(0.,0.,-1.));
#225=DIRECTION('',(-1.,-8.88178419700127E-16,0.));
#226=DIRECTION('',(0.,0.,1.));
#227=DIRECTION('',(-1.,-8.88178419700127E-16,0.));
#228=DIRECTION('',(0.,0.,1.));
#229=DIRECTION('center_axis',(0.,0.,1.));
#230=DIRECTION('ref_axis',(-0.93386513550039,-0.357625374794405,0.));
#231=DIRECTION('center_axis',(0.,0.,-1.));
#232=DIRECTION('ref_axis',(-0.93386513550039,-0.357625374794405,0.));
#233=DIRECTION('',(0.,0.,1.));
#234=DIRECTION('center_axis',(0.,0.,-1.));
#235=DIRECTION('ref_axis',(-0.93386513550039,-0.357625374794405,0.));
#236=DIRECTION('center_axis',(0.,1.,0.));
#237=DIRECTION('ref_axis',(0.,0.,1.));
#238=DIRECTION('',(1.,0.,0.));
#239=DIRECTION('',(0.,0.,1.));
#240=DIRECTION('',(1.,0.,0.));
#241=DIRECTION('center_axis',(-1.,0.,0.));
#242=DIRECTION('ref_axis',(0.,0.,1.));
#243=DIRECTION('',(0.,1.,0.));
#244=DIRECTION('',(0.,0.,1.));
#245=DIRECTION('',(0.,1.,0.));
#246=DIRECTION('center_axis',(0.,1.,0.));
#247=DIRECTION('ref_axis',(0.,0.,1.));
#248=DIRECTION('',(1.,0.,0.));
#249=DIRECTION('',(0.,0.,1.));
#250=DIRECTION('',(1.,0.,0.));
#251=DIRECTION('center_axis',(1.,0.,0.));
#252=DIRECTION('ref_axis',(0.,0.,-1.));
#253=DIRECTION('',(0.,-1.,0.));
#254=DIRECTION('',(0.,0.,1.));
#255=DIRECTION('',(0.,-1.,0.));
#256=DIRECTION('center_axis',(4.36298171080765E-15,1.,0.));
#257=DIRECTION('ref_axis',(0.,0.,1.));
#258=DIRECTION('',(1.,-4.36298171080765E-15,0.));
#259=DIRECTION('',(0.,0.,1.));
#260=DIRECTION('',(1.,-4.36298171080765E-15,0.));
#261=DIRECTION('center_axis',(0.,0.,1.));
#262=DIRECTION('ref_axis',(0.721496874900568,-0.692417691504711,0.));
#263=DIRECTION('center_axis',(0.,0.,-1.));
#264=DIRECTION('ref_axis',(0.721496874900568,-0.692417691504711,0.));
#265=DIRECTION('center_axis',(0.,0.,-1.));
#266=DIRECTION('ref_axis',(0.721496874900568,-0.692417691504711,0.));
#267=DIRECTION('center_axis',(0.,0.,1.));
#268=DIRECTION('ref_axis',(1.,0.,0.));
#269=DIRECTION('center_axis',(0.,0.,1.));
#270=DIRECTION('ref_axis',(1.,0.,0.));
#271=CARTESIAN_POINT('',(0.,0.,0.));
#272=CARTESIAN_POINT('Origin',(2.5,-6.7,0.));
#273=CARTESIAN_POINT('',(2.5,-6.7,100.));
#274=CARTESIAN_POINT('',(-2.49999999999999,-6.70000000000001,100.));
#275=CARTESIAN_POINT('',(1.25,-6.7,100.));
#276=CARTESIAN_POINT('',(-2.49999999999999,-6.70000000000001,0.));
#277=CARTESIAN_POINT('',(-2.49999999999999,-6.70000000000001,0.));
#278=CARTESIAN_POINT('',(2.5,-6.7,0.));
#279=CARTESIAN_POINT('',(1.25,-6.7,0.));
#280=CARTESIAN_POINT('',(2.5,-6.7,0.));
#281=CARTESIAN_POINT('Origin',(11.9388888888889,7.15694444444447,0.));
#282=CARTESIAN_POINT('',(-6.75,0.,100.));
#283=CARTESIAN_POINT('Origin',(11.9388888888889,7.15694444444447,100.));
#284=CARTESIAN_POINT('',(-6.75,0.,0.));
#285=CARTESIAN_POINT('',(-6.75,0.,0.));
#286=CARTESIAN_POINT('Origin',(11.9388888888889,7.15694444444447,0.));
#287=CARTESIAN_POINT('Origin',(-6.75,0.,0.));
#288=CARTESIAN_POINT('',(-3.90000000000001,0.,100.));
#289=CARTESIAN_POINT('',(-3.375,0.,100.));
#290=CARTESIAN_POINT('',(-3.90000000000001,0.,0.));
#291=CARTESIAN_POINT('',(-3.90000000000001,0.,0.));
#292=CARTESIAN_POINT('',(-3.375,0.,0.));
#293=CARTESIAN_POINT('Origin',(-3.90000000000001,0.,0.));
#294=CARTESIAN_POINT('',(-3.90000000000001,0.5,100.));
#295=CARTESIAN_POINT('',(-3.90000000000001,-1.55,100.));
#296=CARTESIAN_POINT('',(-3.90000000000001,0.5,0.));
#297=CARTESIAN_POINT('',(-3.90000000000001,0.5,0.));
#298=CARTESIAN_POINT('',(-3.90000000000001,-1.55,0.));
#299=CARTESIAN_POINT('Origin',(-3.90000000000001,0.5,0.));
#300=CARTESIAN_POINT('',(3.90000000000001,0.5,100.));
#301=CARTESIAN_POINT('',(-1.95,0.5,100.));
#302=CARTESIAN_POINT('',(3.90000000000001,0.5,0.));
#303=CARTESIAN_POINT('',(3.90000000000001,0.5,0.));
#304=CARTESIAN_POINT('',(-1.95,0.5,0.));
#305=CARTESIAN_POINT('Origin',(3.90000000000001,0.5,0.));
#306=CARTESIAN_POINT('',(3.90000000000001,0.,100.));
#307=CARTESIAN_POINT('',(3.90000000000001,-1.3,100.));
#308=CARTESIAN_POINT('',(3.90000000000001,0.,0.));
#309=CARTESIAN_POINT('',(3.90000000000001,0.,0.));
#310=CARTESIAN_POINT('',(3.90000000000001,-1.3,0.));
#311=CARTESIAN_POINT('Origin',(3.90000000000001,0.,0.));
#312=CARTESIAN_POINT('',(6.74999999999999,-1.24344978758018E-14,100.));
#313=CARTESIAN_POINT('',(1.95000000000001,8.60422844084496E-15,100.));
#314=CARTESIAN_POINT('',(6.74999999999999,-1.24344978758018E-14,0.));
#315=CARTESIAN_POINT('',(6.74999999999999,-1.24344978758018E-14,0.));
#316=CARTESIAN_POINT('',(1.95000000000001,8.60422844084496E-15,0.));
#317=CARTESIAN_POINT('Origin',(-11.9388888888888,7.15694444444439,0.));
#318=CARTESIAN_POINT('Origin',(-11.9388888888888,7.15694444444439,100.));
#319=CARTESIAN_POINT('Origin',(-11.9388888888888,7.15694444444439,0.));
#320=CARTESIAN_POINT('Origin',(-2.77555756156289E-15,-3.1,100.));
#321=CARTESIAN_POINT('Origin',(-2.77555756156289E-15,-3.1,0.));
#322=UNCERTAINTY_MEASURE_WITH_UNIT(LENGTH_MEASURE(0.01),#326,
'DISTANCE_ACCURACY_VALUE',
'Maximum model space distance between geometric entities at asserted c
onnectivities');
#323=UNCERTAINTY_MEASURE_WITH_UNIT(LENGTH_MEASURE(0.01),#326,
'DISTANCE_ACCURACY_VALUE',
'Maximum model space distance between geometric entities at asserted c
onnectivities');
#324=(
GEOMETRIC_REPRESENTATION_CONTEXT(3)
GLOBAL_UNCERTAINTY_ASSIGNED_CONTEXT((#322))
GLOBAL_UNIT_ASSIGNED_CONTEXT((#326,#328,#329))
REPRESENTATION_CONTEXT('','3D')
);
#325=(
GEOMETRIC_REPRESENTATION_CONTEXT(3)
GLOBAL_UNCERTAINTY_ASSIGNED_CONTEXT((#323))
GLOBAL_UNIT_ASSIGNED_CONTEXT((#326,#328,#329))
REPRESENTATION_CONTEXT('','3D')
);
#326=(
LENGTH_UNIT()
NAMED_UNIT(*)
SI_UNIT(.MILLI.,.METRE.)
);
#327=(
LENGTH_UNIT()
NAMED_UNIT(*)
SI_UNIT(.CENTI.,.METRE.)
);
#328=(
NAMED_UNIT(*)
PLANE_ANGLE_UNIT()
SI_UNIT($,.RADIAN.)
);
#329=(
NAMED_UNIT(*)
SI_UNIT($,.STERADIAN.)
SOLID_ANGLE_UNIT()
);
#330=SHAPE_DEFINITION_REPRESENTATION(#331,#332);
#331=PRODUCT_DEFINITION_SHAPE('',$,#334);
#332=SHAPE_REPRESENTATION('',(#206),#324);
#333=PRODUCT_DEFINITION_CONTEXT('part definition',#338,'design');
#334=PRODUCT_DEFINITION('210000-ZP','210000-ZP',#335,#333);
#335=PRODUCT_DEFINITION_FORMATION('',$,#340);
#336=PRODUCT_RELATED_PRODUCT_CATEGORY('210000-ZP','210000-ZP',(#340));
#337=APPLICATION_PROTOCOL_DEFINITION('international standard',
'automotive_design',2009,#338);
#338=APPLICATION_CONTEXT(
'Core Data for Automotive Mechanical Design Process');
#339=PRODUCT_CONTEXT('part definition',#338,'mechanical');
#340=PRODUCT('210000-ZP','210000-ZP','Maticov\X\FD profil pro modul 40',
(#339));
#341=PRESENTATION_STYLE_ASSIGNMENT((#342));
#342=SURFACE_STYLE_USAGE(.BOTH.,#345);
#343=SURFACE_STYLE_RENDERING_WITH_PROPERTIES($,#349,(#344));
#344=SURFACE_STYLE_TRANSPARENT(0.);
#345=SURFACE_SIDE_STYLE('',(#346,#343));
#346=SURFACE_STYLE_FILL_AREA(#347);
#347=FILL_AREA_STYLE('',(#348));
#348=FILL_AREA_STYLE_COLOUR('',#349);
#349=COLOUR_RGB('',0.501960784313725,0.501960784313725,0.501960784313725);
ENDSEC;
END-ISO-10303-21;
