ISO-10303-21;
HEADER;
/* Generated by software containing ST-Developer
 * from STEP Tools, Inc. (www.steptools.com) 
 */

FILE_DESCRIPTION(
/* description */ (''),
/* implementation_level */ '2;1');

FILE_NAME(
/* name */ 'C:\\STEP\\200840.4.stp',
/* time_stamp */ '2014-03-13T20:37:29+01:00',
/* author */ ('jank'),
/* organization */ ('Alutec K&K'),
/* preprocessor_version */ 'ST-DEVELOPER v15.2',
/* originating_system */ 'Autodesk Inventor 2014',
/* authorisation */ '');

FILE_SCHEMA (('AUTOMOTIVE_DESIGN { 1 0 10303 214 3 1 1 }'));
ENDSEC;

DATA;
#10=SHAPE_REPRESENTATION_RELATIONSHIP('SRR','None',#363,#11);
#11=ADVANCED_BREP_SHAPE_REPRESENTATION($,(#214),#354);
#12=STYLED_ITEM($,(#372),#214);
#13=LINE($,#315,#31);
#14=LINE($,#317,#32);
#15=LINE($,#319,#33);
#16=LINE($,#320,#34);
#17=LINE($,#323,#35);
#18=LINE($,#325,#36);
#19=LINE($,#326,#37);
#20=LINE($,#329,#38);
#21=LINE($,#331,#39);
#22=LINE($,#332,#40);
#23=LINE($,#335,#41);
#24=LINE($,#337,#42);
#25=LINE($,#338,#43);
#26=LINE($,#341,#44);
#27=LINE($,#343,#45);
#28=LINE($,#344,#46);
#29=LINE($,#346,#47);
#30=LINE($,#347,#48);
#31=VECTOR($,#260,2.88675134594813);
#32=VECTOR($,#261,3.5);
#33=VECTOR($,#262,2.88675134594813);
#34=VECTOR($,#263,3.5);
#35=VECTOR($,#266,2.88675134594813);
#36=VECTOR($,#267,2.88675134594813);
#37=VECTOR($,#268,3.5);
#38=VECTOR($,#271,2.88675134594813);
#39=VECTOR($,#272,2.88675134594813);
#40=VECTOR($,#273,3.5);
#41=VECTOR($,#276,2.88675134594813);
#42=VECTOR($,#277,2.88675134594813);
#43=VECTOR($,#278,3.5);
#44=VECTOR($,#281,2.88675134594813);
#45=VECTOR($,#282,2.88675134594813);
#46=VECTOR($,#283,3.5);
#47=VECTOR($,#286,2.88675134594814);
#48=VECTOR($,#287,2.88675134594814);
#49=TOROIDAL_SURFACE($,#222,4.5,0.5);
#50=PLANE($,#221);
#51=PLANE($,#226);
#52=PLANE($,#227);
#53=PLANE($,#228);
#54=PLANE($,#229);
#55=PLANE($,#230);
#56=PLANE($,#231);
#57=PLANE($,#232);
#58=PLANE($,#233);
#59=CYLINDRICAL_SURFACE($,#219,4.);
#60=CYLINDRICAL_SURFACE($,#235,8.);
#61=FACE_BOUND($,#82,.T.);
#62=FACE_BOUND($,#84,.T.);
#63=FACE_BOUND($,#87,.T.);
#64=FACE_BOUND($,#89,.T.);
#65=FACE_BOUND($,#98,.T.);
#66=FACE_BOUND($,#100,.T.);
#67=FACE_OUTER_BOUND($,#81,.T.);
#68=FACE_OUTER_BOUND($,#83,.T.);
#69=FACE_OUTER_BOUND($,#85,.T.);
#70=FACE_OUTER_BOUND($,#86,.T.);
#71=FACE_OUTER_BOUND($,#88,.T.);
#72=FACE_OUTER_BOUND($,#90,.T.);
#73=FACE_OUTER_BOUND($,#91,.T.);
#74=FACE_OUTER_BOUND($,#92,.T.);
#75=FACE_OUTER_BOUND($,#93,.T.);
#76=FACE_OUTER_BOUND($,#94,.T.);
#77=FACE_OUTER_BOUND($,#95,.T.);
#78=FACE_OUTER_BOUND($,#96,.T.);
#79=FACE_OUTER_BOUND($,#97,.T.);
#80=FACE_OUTER_BOUND($,#99,.T.);
#81=EDGE_LOOP($,(#149));
#82=EDGE_LOOP($,(#150));
#83=EDGE_LOOP($,(#151));
#84=EDGE_LOOP($,(#152));
#85=EDGE_LOOP($,(#153));
#86=EDGE_LOOP($,(#154));
#87=EDGE_LOOP($,(#155));
#88=EDGE_LOOP($,(#156));
#89=EDGE_LOOP($,(#157));
#90=EDGE_LOOP($,(#158,#159,#160,#161));
#91=EDGE_LOOP($,(#162,#163,#164,#165));
#92=EDGE_LOOP($,(#166,#167,#168,#169));
#93=EDGE_LOOP($,(#170,#171,#172,#173));
#94=EDGE_LOOP($,(#174,#175,#176,#177));
#95=EDGE_LOOP($,(#178,#179,#180,#181));
#96=EDGE_LOOP($,(#182,#183,#184,#185,#186,#187));
#97=EDGE_LOOP($,(#188));
#98=EDGE_LOOP($,(#189,#190,#191,#192,#193,#194));
#99=EDGE_LOOP($,(#195));
#100=EDGE_LOOP($,(#196));
#101=CIRCLE($,#217,4.);
#102=CIRCLE($,#218,3.375);
#103=CIRCLE($,#220,4.);
#104=CIRCLE($,#223,4.14644660940672);
#105=CIRCLE($,#225,8.);
#106=CIRCLE($,#234,8.);
#107=VERTEX_POINT($,#298);
#108=VERTEX_POINT($,#300);
#109=VERTEX_POINT($,#303);
#110=VERTEX_POINT($,#307);
#111=VERTEX_POINT($,#310);
#112=VERTEX_POINT($,#313);
#113=VERTEX_POINT($,#314);
#114=VERTEX_POINT($,#316);
#115=VERTEX_POINT($,#318);
#116=VERTEX_POINT($,#322);
#117=VERTEX_POINT($,#324);
#118=VERTEX_POINT($,#328);
#119=VERTEX_POINT($,#330);
#120=VERTEX_POINT($,#334);
#121=VERTEX_POINT($,#336);
#122=VERTEX_POINT($,#340);
#123=VERTEX_POINT($,#342);
#124=VERTEX_POINT($,#350);
#125=EDGE_CURVE($,#107,#107,#101,.T.);
#126=EDGE_CURVE($,#108,#108,#102,.T.);
#127=EDGE_CURVE($,#109,#109,#103,.T.);
#128=EDGE_CURVE($,#110,#110,#104,.T.);
#129=EDGE_CURVE($,#111,#111,#105,.T.);
#130=EDGE_CURVE($,#112,#113,#13,.T.);
#131=EDGE_CURVE($,#114,#112,#14,.T.);
#132=EDGE_CURVE($,#115,#114,#15,.T.);
#133=EDGE_CURVE($,#115,#113,#16,.T.);
#134=EDGE_CURVE($,#113,#116,#17,.T.);
#135=EDGE_CURVE($,#117,#115,#18,.T.);
#136=EDGE_CURVE($,#117,#116,#19,.T.);
#137=EDGE_CURVE($,#116,#118,#20,.T.);
#138=EDGE_CURVE($,#119,#117,#21,.T.);
#139=EDGE_CURVE($,#119,#118,#22,.T.);
#140=EDGE_CURVE($,#118,#120,#23,.T.);
#141=EDGE_CURVE($,#121,#119,#24,.T.);
#142=EDGE_CURVE($,#121,#120,#25,.T.);
#143=EDGE_CURVE($,#120,#122,#26,.T.);
#144=EDGE_CURVE($,#123,#121,#27,.T.);
#145=EDGE_CURVE($,#123,#122,#28,.T.);
#146=EDGE_CURVE($,#122,#112,#29,.T.);
#147=EDGE_CURVE($,#114,#123,#30,.T.);
#148=EDGE_CURVE($,#124,#124,#106,.T.);
#149=ORIENTED_EDGE($,*,*,#125,.T.);
#150=ORIENTED_EDGE($,*,*,#126,.T.);
#151=ORIENTED_EDGE($,*,*,#127,.F.);
#152=ORIENTED_EDGE($,*,*,#125,.F.);
#153=ORIENTED_EDGE($,*,*,#126,.F.);
#154=ORIENTED_EDGE($,*,*,#128,.T.);
#155=ORIENTED_EDGE($,*,*,#127,.T.);
#156=ORIENTED_EDGE($,*,*,#129,.T.);
#157=ORIENTED_EDGE($,*,*,#128,.F.);
#158=ORIENTED_EDGE($,*,*,#130,.F.);
#159=ORIENTED_EDGE($,*,*,#131,.F.);
#160=ORIENTED_EDGE($,*,*,#132,.F.);
#161=ORIENTED_EDGE($,*,*,#133,.T.);
#162=ORIENTED_EDGE($,*,*,#134,.F.);
#163=ORIENTED_EDGE($,*,*,#133,.F.);
#164=ORIENTED_EDGE($,*,*,#135,.F.);
#165=ORIENTED_EDGE($,*,*,#136,.T.);
#166=ORIENTED_EDGE($,*,*,#137,.F.);
#167=ORIENTED_EDGE($,*,*,#136,.F.);
#168=ORIENTED_EDGE($,*,*,#138,.F.);
#169=ORIENTED_EDGE($,*,*,#139,.T.);
#170=ORIENTED_EDGE($,*,*,#140,.F.);
#171=ORIENTED_EDGE($,*,*,#139,.F.);
#172=ORIENTED_EDGE($,*,*,#141,.F.);
#173=ORIENTED_EDGE($,*,*,#142,.T.);
#174=ORIENTED_EDGE($,*,*,#143,.F.);
#175=ORIENTED_EDGE($,*,*,#142,.F.);
#176=ORIENTED_EDGE($,*,*,#144,.F.);
#177=ORIENTED_EDGE($,*,*,#145,.T.);
#178=ORIENTED_EDGE($,*,*,#146,.F.);
#179=ORIENTED_EDGE($,*,*,#145,.F.);
#180=ORIENTED_EDGE($,*,*,#147,.F.);
#181=ORIENTED_EDGE($,*,*,#131,.T.);
#182=ORIENTED_EDGE($,*,*,#130,.T.);
#183=ORIENTED_EDGE($,*,*,#134,.T.);
#184=ORIENTED_EDGE($,*,*,#137,.T.);
#185=ORIENTED_EDGE($,*,*,#140,.T.);
#186=ORIENTED_EDGE($,*,*,#143,.T.);
#187=ORIENTED_EDGE($,*,*,#146,.T.);
#188=ORIENTED_EDGE($,*,*,#148,.F.);
#189=ORIENTED_EDGE($,*,*,#132,.T.);
#190=ORIENTED_EDGE($,*,*,#147,.T.);
#191=ORIENTED_EDGE($,*,*,#144,.T.);
#192=ORIENTED_EDGE($,*,*,#141,.T.);
#193=ORIENTED_EDGE($,*,*,#138,.T.);
#194=ORIENTED_EDGE($,*,*,#135,.T.);
#195=ORIENTED_EDGE($,*,*,#129,.F.);
#196=ORIENTED_EDGE($,*,*,#148,.T.);
#197=CONICAL_SURFACE($,#216,3.6875,45.);
#198=CONICAL_SURFACE($,#224,6.,45.);
#199=ADVANCED_FACE($,(#67,#61),#197,.T.);
#200=ADVANCED_FACE($,(#68,#62),#59,.T.);
#201=ADVANCED_FACE($,(#69),#50,.T.);
#202=ADVANCED_FACE($,(#70,#63),#49,.F.);
#203=ADVANCED_FACE($,(#71,#64),#198,.T.);
#204=ADVANCED_FACE($,(#72),#51,.F.);
#205=ADVANCED_FACE($,(#73),#52,.F.);
#206=ADVANCED_FACE($,(#74),#53,.F.);
#207=ADVANCED_FACE($,(#75),#54,.F.);
#208=ADVANCED_FACE($,(#76),#55,.F.);
#209=ADVANCED_FACE($,(#77),#56,.F.);
#210=ADVANCED_FACE($,(#78),#57,.T.);
#211=ADVANCED_FACE($,(#79,#65),#58,.T.);
#212=ADVANCED_FACE($,(#80,#66),#60,.T.);
#213=CLOSED_SHELL($,(#199,#200,#201,#202,#203,#204,#205,#206,#207,#208,
#209,#210,#211,#212));
#214=MANIFOLD_SOLID_BREP('Solid1',#213);
#215=AXIS2_PLACEMENT_3D('placement',#296,#236,#237);
#216=AXIS2_PLACEMENT_3D($,#297,#238,#239);
#217=AXIS2_PLACEMENT_3D($,#299,#240,#241);
#218=AXIS2_PLACEMENT_3D($,#301,#242,#243);
#219=AXIS2_PLACEMENT_3D($,#302,#244,#245);
#220=AXIS2_PLACEMENT_3D($,#304,#246,#247);
#221=AXIS2_PLACEMENT_3D($,#305,#248,#249);
#222=AXIS2_PLACEMENT_3D($,#306,#250,#251);
#223=AXIS2_PLACEMENT_3D($,#308,#252,#253);
#224=AXIS2_PLACEMENT_3D($,#309,#254,#255);
#225=AXIS2_PLACEMENT_3D($,#311,#256,#257);
#226=AXIS2_PLACEMENT_3D($,#312,#258,#259);
#227=AXIS2_PLACEMENT_3D($,#321,#264,#265);
#228=AXIS2_PLACEMENT_3D($,#327,#269,#270);
#229=AXIS2_PLACEMENT_3D($,#333,#274,#275);
#230=AXIS2_PLACEMENT_3D($,#339,#279,#280);
#231=AXIS2_PLACEMENT_3D($,#345,#284,#285);
#232=AXIS2_PLACEMENT_3D($,#348,#288,#289);
#233=AXIS2_PLACEMENT_3D($,#349,#290,#291);
#234=AXIS2_PLACEMENT_3D($,#351,#292,#293);
#235=AXIS2_PLACEMENT_3D($,#352,#294,#295);
#236=DIRECTION('axis',(0.,0.,1.));
#237=DIRECTION('refdir',(1.,0.,0.));
#238=DIRECTION('center_axis',(-1.,0.,-6.66133814775094E-016));
#239=DIRECTION('ref_axis',(6.66133814775094E-016,0.,-1.));
#240=DIRECTION('center_axis',(1.,0.,6.66133814775094E-016));
#241=DIRECTION('ref_axis',(6.66133814775094E-016,0.,-1.));
#242=DIRECTION('center_axis',(-1.,0.,-6.66133814775094E-016));
#243=DIRECTION('ref_axis',(6.66133814775094E-016,0.,-1.));
#244=DIRECTION('center_axis',(1.,0.,6.66133814775094E-016));
#245=DIRECTION('ref_axis',(-6.66133814775094E-016,0.,1.));
#246=DIRECTION('center_axis',(-1.,0.,-6.66133814775094E-016));
#247=DIRECTION('ref_axis',(6.66133814775094E-016,-1.22464679914735E-016,
-1.));
#248=DIRECTION('center_axis',(1.,0.,6.66133814775094E-016));
#249=DIRECTION('ref_axis',(0.,0.,-1.));
#250=DIRECTION('center_axis',(1.,0.,6.66133814775094E-016));
#251=DIRECTION('ref_axis',(5.32907051820075E-016,0.,-1.));
#252=DIRECTION('center_axis',(1.,0.,6.66133814775094E-016));
#253=DIRECTION('ref_axis',(6.66133814775094E-016,0.,-1.));
#254=DIRECTION('center_axis',(-1.,0.,-6.66133814775094E-016));
#255=DIRECTION('ref_axis',(-6.66133814775094E-016,0.,1.));
#256=DIRECTION('center_axis',(1.,0.,6.66133814775094E-016));
#257=DIRECTION('ref_axis',(-6.66133814775094E-016,0.,1.));
#258=DIRECTION('center_axis',(3.33066907387546E-016,-0.866025403784439,
-0.499999999999999));
#259=DIRECTION('ref_axis',(1.,0.,8.88178419700125E-016));
#260=DIRECTION($,(-5.7688880591507E-016,-0.499999999999999,0.866025403784439));
#261=DIRECTION($,(1.,0.,6.66133814775094E-016));
#262=DIRECTION($,(5.7688880591507E-016,0.499999999999999,-0.866025403784439));
#263=DIRECTION($,(1.,0.,6.66133814775094E-016));
#264=DIRECTION('center_axis',(-3.33066907387547E-016,-0.866025403784439,
0.5));
#265=DIRECTION('ref_axis',(1.,0.,6.66133814775094E-016));
#266=DIRECTION($,(-5.76888805915069E-016,0.5,0.866025403784439));
#267=DIRECTION($,(5.76888805915069E-016,-0.5,-0.866025403784439));
#268=DIRECTION($,(1.,0.,6.66133814775094E-016));
#269=DIRECTION('center_axis',(-6.66133814775094E-016,0.,1.));
#270=DIRECTION('ref_axis',(1.,0.,8.88178419700125E-016));
#271=DIRECTION($,(0.,1.,0.));
#272=DIRECTION($,(0.,-1.,0.));
#273=DIRECTION($,(1.,0.,6.66133814775094E-016));
#274=DIRECTION('center_axis',(-3.33066907387546E-016,0.866025403784439,
0.499999999999999));
#275=DIRECTION('ref_axis',(-1.,0.,-8.88178419700125E-016));
#276=DIRECTION($,(5.7688880591507E-016,0.499999999999999,-0.866025403784439));
#277=DIRECTION($,(-5.7688880591507E-016,-0.499999999999999,0.866025403784439));
#278=DIRECTION($,(1.,0.,6.66133814775094E-016));
#279=DIRECTION('center_axis',(3.33066907387547E-016,0.866025403784439,-0.5));
#280=DIRECTION('ref_axis',(-1.,0.,-6.66133814775094E-016));
#281=DIRECTION($,(5.76888805915069E-016,-0.5,-0.866025403784439));
#282=DIRECTION($,(-5.76888805915069E-016,0.5,0.866025403784439));
#283=DIRECTION($,(1.,0.,6.66133814775094E-016));
#284=DIRECTION('center_axis',(6.66133814775094E-016,0.,-1.));
#285=DIRECTION('ref_axis',(-1.,0.,-8.88178419700125E-016));
#286=DIRECTION($,(0.,-1.,0.));
#287=DIRECTION($,(0.,1.,0.));
#288=DIRECTION('center_axis',(-1.,0.,-6.66133814775094E-016));
#289=DIRECTION('ref_axis',(-8.88178419700125E-016,0.,1.));
#290=DIRECTION('center_axis',(-1.,0.,-6.66133814775094E-016));
#291=DIRECTION('ref_axis',(-6.66133814775094E-016,0.,1.));
#292=DIRECTION('center_axis',(1.,0.,6.66133814775094E-016));
#293=DIRECTION('ref_axis',(-6.66133814775094E-016,0.,1.));
#294=DIRECTION('center_axis',(1.,0.,6.66133814775094E-016));
#295=DIRECTION('ref_axis',(-6.66133814775094E-016,0.,1.));
#296=CARTESIAN_POINT('',(0.,0.,0.));
#297=CARTESIAN_POINT('Origin',(39.6875,0.,2.64371857738865E-014));
#298=CARTESIAN_POINT('',(39.375,-4.89858719658941E-016,4.00000000000003));
#299=CARTESIAN_POINT('Origin',(39.375,0.,2.62290189567693E-014));
#300=CARTESIAN_POINT('',(40.,4.13318294712232E-016,3.37500000000003));
#301=CARTESIAN_POINT('Origin',(40.,0.,2.66453525910038E-014));
#302=CARTESIAN_POINT('Origin',(22.2,0.,1.47881706880071E-014));
#303=CARTESIAN_POINT('',(4.60710678118655,9.79717439317882E-016,4.));
#304=CARTESIAN_POINT('Origin',(4.60710678118655,0.,3.068949615228E-015));
#305=CARTESIAN_POINT('Origin',(40.,0.,2.00000000000003));
#306=CARTESIAN_POINT('Origin',(4.60710678118655,0.,3.068949615228E-015));
#307=CARTESIAN_POINT('',(4.25355339059328,0.,4.14644660940672));
#308=CARTESIAN_POINT('Origin',(4.25355339059328,5.07793256804534E-016,2.83343574642544E-015));
#309=CARTESIAN_POINT('Origin',(2.4,0.,1.59872115546023E-015));
#310=CARTESIAN_POINT('',(0.399999999999996,0.,8.));
#311=CARTESIAN_POINT('Origin',(0.4,0.,2.66453525910038E-016));
#312=CARTESIAN_POINT('Origin',(1.94289029309402E-015,-1.44337567297407,
-2.5));
#313=CARTESIAN_POINT('',(3.5,-1.44337567297407,-2.5));
#314=CARTESIAN_POINT('',(3.5,-2.88675134594813,3.30291349825984E-015));
#315=CARTESIAN_POINT($,(3.5,-1.44337567297407,-2.5));
#316=CARTESIAN_POINT('',(1.94289029309402E-015,-1.44337567297407,-2.5));
#317=CARTESIAN_POINT($,(1.94289029309402E-015,-1.44337567297407,-2.5));
#318=CARTESIAN_POINT('',(2.77555756156288E-016,-2.88675134594813,9.71445146547012E-016));
#319=CARTESIAN_POINT($,(5.27355936696947E-016,-2.67024499500202,-0.374999999999997));
#320=CARTESIAN_POINT($,(2.77555756156288E-016,-2.88675134594813,9.71445146547012E-016));
#321=CARTESIAN_POINT('Origin',(2.77555756156288E-016,-2.88675134594813,
9.71445146547012E-016));
#322=CARTESIAN_POINT('',(3.5,-1.44337567297406,2.5));
#323=CARTESIAN_POINT($,(3.5,-2.88675134594813,3.30291349825984E-015));
#324=CARTESIAN_POINT('',(-1.38777878078145E-015,-1.44337567297406,2.5));
#325=CARTESIAN_POINT($,(-1.13797860024079E-015,-1.65988202392017,2.125));
#326=CARTESIAN_POINT($,(-1.38777878078145E-015,-1.44337567297406,2.5));
#327=CARTESIAN_POINT('Origin',(-1.38777878078145E-015,-1.44337567297406,
2.5));
#328=CARTESIAN_POINT('',(3.5,1.44337567297407,2.5));
#329=CARTESIAN_POINT($,(3.5,-1.44337567297406,2.5));
#330=CARTESIAN_POINT('',(-1.38777878078145E-015,1.44337567297407,2.5));
#331=CARTESIAN_POINT($,(-1.38777878078145E-015,-0.721687836487032,2.5));
#332=CARTESIAN_POINT($,(-1.38777878078145E-015,1.44337567297407,2.5));
#333=CARTESIAN_POINT('Origin',(-1.38777878078145E-015,1.44337567297407,
2.5));
#334=CARTESIAN_POINT('',(3.5,2.88675134594813,1.9151347174784E-015));
#335=CARTESIAN_POINT($,(3.5,1.44337567297407,2.5));
#336=CARTESIAN_POINT('',(2.77555756156289E-016,2.88675134594813,-4.16333634234434E-016));
#337=CARTESIAN_POINT($,(-1.97064586870965E-015,0.938194187433145,3.375));
#338=CARTESIAN_POINT($,(2.77555756156289E-016,2.88675134594813,-4.16333634234434E-016));
#339=CARTESIAN_POINT('Origin',(2.77555756156289E-016,2.88675134594813,-4.16333634234434E-016));
#340=CARTESIAN_POINT('',(3.5,1.44337567297407,-2.5));
#341=CARTESIAN_POINT($,(3.5,2.88675134594813,1.9151347174784E-015));
#342=CARTESIAN_POINT('',(1.94289029309402E-015,1.44337567297407,-2.5));
#343=CARTESIAN_POINT($,(-3.05311331771919E-016,3.39193283148905,0.875000000000001));
#344=CARTESIAN_POINT($,(1.94289029309402E-015,1.44337567297407,-2.5));
#345=CARTESIAN_POINT('Origin',(1.94289029309402E-015,1.44337567297407,-2.5));
#346=CARTESIAN_POINT($,(3.5,1.44337567297407,-2.5));
#347=CARTESIAN_POINT($,(1.94289029309402E-015,0.721687836487033,-2.5));
#348=CARTESIAN_POINT('Origin',(3.5,1.38777878078145E-016,2.43555176027144E-015));
#349=CARTESIAN_POINT('Origin',(-2.38697950294409E-015,0.,4.));
#350=CARTESIAN_POINT('',(-4.49640324973188E-015,0.,8.));
#351=CARTESIAN_POINT('Origin',(0.,0.,0.));
#352=CARTESIAN_POINT('Origin',(0.2,0.,1.33226762955019E-016));
#353=UNCERTAINTY_MEASURE_WITH_UNIT(LENGTH_MEASURE(0.01),#355,
'DISTANCE_ACCURACY_VALUE',
'Maximum model space distance between geometric entities at asserted c
onnectivities');
#354=(
GEOMETRIC_REPRESENTATION_CONTEXT(3)
GLOBAL_UNCERTAINTY_ASSIGNED_CONTEXT((#353))
GLOBAL_UNIT_ASSIGNED_CONTEXT((#355,#358,#356))
REPRESENTATION_CONTEXT('','3D')
);
#355=(
LENGTH_UNIT()
NAMED_UNIT(*)
SI_UNIT(.MILLI.,.METRE.)
);
#356=(
NAMED_UNIT(*)
SI_UNIT($,.STERADIAN.)
SOLID_ANGLE_UNIT()
);
#357=DIMENSIONAL_EXPONENTS(0.,0.,0.,0.,0.,0.,0.);
#358=(
CONVERSION_BASED_UNIT('degree',#360)
NAMED_UNIT(#357)
PLANE_ANGLE_UNIT()
);
#359=(
NAMED_UNIT(*)
PLANE_ANGLE_UNIT()
SI_UNIT($,.RADIAN.)
);
#360=PLANE_ANGLE_MEASURE_WITH_UNIT(PLANE_ANGLE_MEASURE(0.01745329252),#359);
#361=SHAPE_DEFINITION_REPRESENTATION(#362,#363);
#362=PRODUCT_DEFINITION_SHAPE('',$,#365);
#363=SHAPE_REPRESENTATION('',(#215),#354);
#364=PRODUCT_DEFINITION_CONTEXT('3D Mechanical Parts',#368,'design');
#365=PRODUCT_DEFINITION('200840.4','200840.4',#366,#364);
#366=PRODUCT_DEFINITION_FORMATION('',$,#370);
#367=APPLICATION_PROTOCOL_DEFINITION('international standard',
'automotive_design',2009,#368);
#368=APPLICATION_CONTEXT(
'Core Data for Automotive Mechanical Design Process');
#369=PRODUCT_CONTEXT('3D Mechanical Parts',#368,'mechanical');
#370=PRODUCT('200840.4','200840.4',$,(#369));
#371=PRESENTATION_STYLE_ASSIGNMENT((#373));
#372=PRESENTATION_STYLE_ASSIGNMENT((#374));
#373=SURFACE_STYLE_USAGE(.BOTH.,#375);
#374=SURFACE_STYLE_USAGE(.BOTH.,#376);
#375=SURFACE_SIDE_STYLE($,(#377));
#376=SURFACE_SIDE_STYLE($,(#378));
#377=SURFACE_STYLE_FILL_AREA(#379);
#378=SURFACE_STYLE_FILL_AREA(#380);
#379=FILL_AREA_STYLE($,(#381));
#380=FILL_AREA_STYLE($,(#382));
#381=FILL_AREA_STYLE_COLOUR($,#383);
#382=FILL_AREA_STYLE_COLOUR($,#384);
#383=COLOUR_RGB('',0.749019607843137,0.749019607843137,0.749019607843137);
#384=COLOUR_RGB('',0.63921568627451,0.63921568627451,0.686274509803922);
ENDSEC;
END-ISO-10303-21;
