ISO-10303-21;
HEADER;
/* Generated by software containing ST-Developer
 * from STEP Tools, Inc. (www.steptools.com) 
 */

FILE_DESCRIPTION(
/* description */ ('\X2\0160\X0\roub DIN 912'),
/* implementation_level */ '2;1');

FILE_NAME(
/* name */ 
'D:\\Work\\Zakazky\\2013\\AlutecKK\\stp\\Srouby\\DIN912\\200612-1.stp',

/* time_stamp */ '2013-12-05T18:54:02+01:00',
/* author */ ('PC'),
/* organization */ (''),
/* preprocessor_version */ 'ST-DEVELOPER v15.2',
/* originating_system */ 'Autodesk Inventor 2014',
/* authorisation */ '');

FILE_SCHEMA (('AUTOMOTIVE_DESIGN { 1 0 10303 214 3 1 1 }'));
ENDSEC;

DATA;
#10=SHAPE_REPRESENTATION_RELATIONSHIP('SRR','None',#383,#11);
#11=ADVANCED_BREP_SHAPE_REPRESENTATION($,(#219),#374);
#12=STYLED_ITEM($,(#391),#219);
#13=(
BOUNDED_CURVE()
B_SPLINE_CURVE(2,(#339,#340,#341),.UNSPECIFIED.,.F.,.F.)
B_SPLINE_CURVE_WITH_KNOTS((3,3),(0.,0.292109034519481),.UNSPECIFIED.)
CURVE()
GEOMETRIC_REPRESENTATION_ITEM()
RATIONAL_B_SPLINE_CURVE((1.,1.15470053837925,1.))
REPRESENTATION_ITEM($)
);
#14=(
BOUNDED_CURVE()
B_SPLINE_CURVE(2,(#346,#347,#348),.UNSPECIFIED.,.F.,.F.)
B_SPLINE_CURVE_WITH_KNOTS((3,3),(0.,0.29210903451948),.UNSPECIFIED.)
CURVE()
GEOMETRIC_REPRESENTATION_ITEM()
RATIONAL_B_SPLINE_CURVE((1.,1.15470053837925,1.))
REPRESENTATION_ITEM($)
);
#15=(
BOUNDED_CURVE()
B_SPLINE_CURVE(2,(#352,#353,#354),.UNSPECIFIED.,.F.,.F.)
B_SPLINE_CURVE_WITH_KNOTS((3,3),(0.,0.29210903451948),.UNSPECIFIED.)
CURVE()
GEOMETRIC_REPRESENTATION_ITEM()
RATIONAL_B_SPLINE_CURVE((1.,1.15470053837925,1.))
REPRESENTATION_ITEM($)
);
#16=(
BOUNDED_CURVE()
B_SPLINE_CURVE(2,(#358,#359,#360),.UNSPECIFIED.,.F.,.F.)
B_SPLINE_CURVE_WITH_KNOTS((3,3),(0.,0.292109034519481),.UNSPECIFIED.)
CURVE()
GEOMETRIC_REPRESENTATION_ITEM()
RATIONAL_B_SPLINE_CURVE((1.,1.15470053837925,1.))
REPRESENTATION_ITEM($)
);
#17=(
BOUNDED_CURVE()
B_SPLINE_CURVE(2,(#364,#365,#366),.UNSPECIFIED.,.F.,.F.)
B_SPLINE_CURVE_WITH_KNOTS((3,3),(0.,0.292109034519481),.UNSPECIFIED.)
CURVE()
GEOMETRIC_REPRESENTATION_ITEM()
RATIONAL_B_SPLINE_CURVE((1.,1.15470053837925,1.))
REPRESENTATION_ITEM($)
);
#18=(
BOUNDED_CURVE()
B_SPLINE_CURVE(2,(#369,#370,#371),.UNSPECIFIED.,.F.,.F.)
B_SPLINE_CURVE_WITH_KNOTS((3,3),(0.,0.292109034519481),.UNSPECIFIED.)
CURVE()
GEOMETRIC_REPRESENTATION_ITEM()
RATIONAL_B_SPLINE_CURVE((1.,1.15470053837925,1.))
REPRESENTATION_ITEM($)
);
#19=LINE($,#325,#31);
#20=LINE($,#327,#32);
#21=LINE($,#329,#33);
#22=LINE($,#331,#34);
#23=LINE($,#333,#35);
#24=LINE($,#334,#36);
#25=LINE($,#342,#37);
#26=LINE($,#343,#38);
#27=LINE($,#349,#39);
#28=LINE($,#355,#40);
#29=LINE($,#361,#41);
#30=LINE($,#367,#42);
#31=VECTOR($,#273,2.88675134594813);
#32=VECTOR($,#274,2.88675134594813);
#33=VECTOR($,#275,2.88675134594813);
#34=VECTOR($,#276,2.88675134594813);
#35=VECTOR($,#277,2.88675134594813);
#36=VECTOR($,#278,2.88675134594813);
#37=VECTOR($,#283,3.);
#38=VECTOR($,#284,3.);
#39=VECTOR($,#287,3.);
#40=VECTOR($,#290,3.);
#41=VECTOR($,#293,3.);
#42=VECTOR($,#296,3.);
#43=CONICAL_SURFACE($,#228,2.693275,45.);
#44=CONICAL_SURFACE($,#242,1.44337567297406,60.);
#45=PLANE($,#226);
#46=PLANE($,#230);
#47=PLANE($,#234);
#48=PLANE($,#236);
#49=PLANE($,#237);
#50=PLANE($,#238);
#51=PLANE($,#239);
#52=PLANE($,#240);
#53=PLANE($,#241);
#54=CYLINDRICAL_SURFACE($,#224,3.);
#55=CYLINDRICAL_SURFACE($,#235,5.);
#56=FACE_BOUND($,#79,.T.);
#57=FACE_BOUND($,#81,.T.);
#58=FACE_BOUND($,#83,.T.);
#59=FACE_BOUND($,#85,.T.);
#60=FACE_BOUND($,#88,.T.);
#61=FACE_BOUND($,#89,.T.);
#62=FACE_BOUND($,#90,.T.);
#63=FACE_BOUND($,#92,.T.);
#64=FACE_OUTER_BOUND($,#78,.T.);
#65=FACE_OUTER_BOUND($,#80,.T.);
#66=FACE_OUTER_BOUND($,#82,.T.);
#67=FACE_OUTER_BOUND($,#84,.T.);
#68=FACE_OUTER_BOUND($,#86,.T.);
#69=FACE_OUTER_BOUND($,#87,.T.);
#70=FACE_OUTER_BOUND($,#91,.T.);
#71=FACE_OUTER_BOUND($,#93,.T.);
#72=FACE_OUTER_BOUND($,#94,.T.);
#73=FACE_OUTER_BOUND($,#95,.T.);
#74=FACE_OUTER_BOUND($,#96,.T.);
#75=FACE_OUTER_BOUND($,#97,.T.);
#76=FACE_OUTER_BOUND($,#98,.T.);
#77=FACE_OUTER_BOUND($,#99,.T.);
#78=EDGE_LOOP($,(#151));
#79=EDGE_LOOP($,(#152));
#80=EDGE_LOOP($,(#153));
#81=EDGE_LOOP($,(#154));
#82=EDGE_LOOP($,(#155));
#83=EDGE_LOOP($,(#156));
#84=EDGE_LOOP($,(#157));
#85=EDGE_LOOP($,(#158));
#86=EDGE_LOOP($,(#159));
#87=EDGE_LOOP($,(#160));
#88=EDGE_LOOP($,(#161));
#89=EDGE_LOOP($,(#162,#163,#164,#165,#166,#167));
#90=EDGE_LOOP($,(#168));
#91=EDGE_LOOP($,(#169));
#92=EDGE_LOOP($,(#170));
#93=EDGE_LOOP($,(#171,#172,#173,#174));
#94=EDGE_LOOP($,(#175,#176,#177,#178));
#95=EDGE_LOOP($,(#179,#180,#181,#182));
#96=EDGE_LOOP($,(#183,#184,#185,#186));
#97=EDGE_LOOP($,(#187,#188,#189,#190));
#98=EDGE_LOOP($,(#191,#192,#193,#194));
#99=EDGE_LOOP($,(#195,#196,#197,#198,#199,#200));
#100=CIRCLE($,#222,3.1);
#101=CIRCLE($,#223,3.);
#102=CIRCLE($,#225,3.);
#103=CIRCLE($,#227,5.);
#104=CIRCLE($,#229,2.38655);
#105=CIRCLE($,#232,4.4);
#106=CIRCLE($,#233,5.);
#107=VERTEX_POINT($,#303);
#108=VERTEX_POINT($,#305);
#109=VERTEX_POINT($,#308);
#110=VERTEX_POINT($,#311);
#111=VERTEX_POINT($,#314);
#112=VERTEX_POINT($,#318);
#113=VERTEX_POINT($,#320);
#114=VERTEX_POINT($,#323);
#115=VERTEX_POINT($,#324);
#116=VERTEX_POINT($,#326);
#117=VERTEX_POINT($,#328);
#118=VERTEX_POINT($,#330);
#119=VERTEX_POINT($,#332);
#120=VERTEX_POINT($,#337);
#121=VERTEX_POINT($,#338);
#122=VERTEX_POINT($,#345);
#123=VERTEX_POINT($,#351);
#124=VERTEX_POINT($,#357);
#125=VERTEX_POINT($,#363);
#126=EDGE_CURVE($,#107,#107,#100,.T.);
#127=EDGE_CURVE($,#108,#108,#101,.T.);
#128=EDGE_CURVE($,#109,#109,#102,.T.);
#129=EDGE_CURVE($,#110,#110,#103,.T.);
#130=EDGE_CURVE($,#111,#111,#104,.T.);
#131=EDGE_CURVE($,#112,#112,#105,.T.);
#132=EDGE_CURVE($,#113,#113,#106,.T.);
#133=EDGE_CURVE($,#114,#115,#19,.T.);
#134=EDGE_CURVE($,#115,#116,#20,.T.);
#135=EDGE_CURVE($,#116,#117,#21,.T.);
#136=EDGE_CURVE($,#117,#118,#22,.T.);
#137=EDGE_CURVE($,#118,#119,#23,.T.);
#138=EDGE_CURVE($,#119,#114,#24,.T.);
#139=EDGE_CURVE($,#120,#121,#13,.T.);
#140=EDGE_CURVE($,#120,#119,#25,.T.);
#141=EDGE_CURVE($,#121,#118,#26,.T.);
#142=EDGE_CURVE($,#122,#120,#14,.T.);
#143=EDGE_CURVE($,#122,#114,#27,.T.);
#144=EDGE_CURVE($,#123,#122,#15,.T.);
#145=EDGE_CURVE($,#123,#115,#28,.T.);
#146=EDGE_CURVE($,#124,#123,#16,.T.);
#147=EDGE_CURVE($,#116,#124,#29,.T.);
#148=EDGE_CURVE($,#121,#125,#17,.T.);
#149=EDGE_CURVE($,#125,#117,#30,.T.);
#150=EDGE_CURVE($,#125,#124,#18,.T.);
#151=ORIENTED_EDGE($,*,*,#126,.T.);
#152=ORIENTED_EDGE($,*,*,#127,.T.);
#153=ORIENTED_EDGE($,*,*,#128,.F.);
#154=ORIENTED_EDGE($,*,*,#127,.F.);
#155=ORIENTED_EDGE($,*,*,#129,.T.);
#156=ORIENTED_EDGE($,*,*,#126,.F.);
#157=ORIENTED_EDGE($,*,*,#128,.T.);
#158=ORIENTED_EDGE($,*,*,#130,.T.);
#159=ORIENTED_EDGE($,*,*,#130,.F.);
#160=ORIENTED_EDGE($,*,*,#131,.T.);
#161=ORIENTED_EDGE($,*,*,#132,.T.);
#162=ORIENTED_EDGE($,*,*,#133,.T.);
#163=ORIENTED_EDGE($,*,*,#134,.T.);
#164=ORIENTED_EDGE($,*,*,#135,.T.);
#165=ORIENTED_EDGE($,*,*,#136,.T.);
#166=ORIENTED_EDGE($,*,*,#137,.T.);
#167=ORIENTED_EDGE($,*,*,#138,.T.);
#168=ORIENTED_EDGE($,*,*,#131,.F.);
#169=ORIENTED_EDGE($,*,*,#129,.F.);
#170=ORIENTED_EDGE($,*,*,#132,.F.);
#171=ORIENTED_EDGE($,*,*,#139,.F.);
#172=ORIENTED_EDGE($,*,*,#140,.T.);
#173=ORIENTED_EDGE($,*,*,#137,.F.);
#174=ORIENTED_EDGE($,*,*,#141,.F.);
#175=ORIENTED_EDGE($,*,*,#142,.F.);
#176=ORIENTED_EDGE($,*,*,#143,.T.);
#177=ORIENTED_EDGE($,*,*,#138,.F.);
#178=ORIENTED_EDGE($,*,*,#140,.F.);
#179=ORIENTED_EDGE($,*,*,#144,.F.);
#180=ORIENTED_EDGE($,*,*,#145,.T.);
#181=ORIENTED_EDGE($,*,*,#133,.F.);
#182=ORIENTED_EDGE($,*,*,#143,.F.);
#183=ORIENTED_EDGE($,*,*,#146,.F.);
#184=ORIENTED_EDGE($,*,*,#147,.F.);
#185=ORIENTED_EDGE($,*,*,#134,.F.);
#186=ORIENTED_EDGE($,*,*,#145,.F.);
#187=ORIENTED_EDGE($,*,*,#148,.F.);
#188=ORIENTED_EDGE($,*,*,#141,.T.);
#189=ORIENTED_EDGE($,*,*,#136,.F.);
#190=ORIENTED_EDGE($,*,*,#149,.F.);
#191=ORIENTED_EDGE($,*,*,#150,.F.);
#192=ORIENTED_EDGE($,*,*,#149,.T.);
#193=ORIENTED_EDGE($,*,*,#135,.F.);
#194=ORIENTED_EDGE($,*,*,#147,.T.);
#195=ORIENTED_EDGE($,*,*,#146,.T.);
#196=ORIENTED_EDGE($,*,*,#144,.T.);
#197=ORIENTED_EDGE($,*,*,#142,.T.);
#198=ORIENTED_EDGE($,*,*,#139,.T.);
#199=ORIENTED_EDGE($,*,*,#148,.T.);
#200=ORIENTED_EDGE($,*,*,#150,.T.);
#201=TOROIDAL_SURFACE($,#221,3.1,0.1);
#202=TOROIDAL_SURFACE($,#231,4.4,0.6);
#203=ADVANCED_FACE($,(#64,#56),#201,.F.);
#204=ADVANCED_FACE($,(#65,#57),#54,.T.);
#205=ADVANCED_FACE($,(#66,#58),#45,.T.);
#206=ADVANCED_FACE($,(#67,#59),#43,.T.);
#207=ADVANCED_FACE($,(#68),#46,.T.);
#208=ADVANCED_FACE($,(#69,#60),#202,.T.);
#209=ADVANCED_FACE($,(#61,#62),#47,.T.);
#210=ADVANCED_FACE($,(#70,#63),#55,.T.);
#211=ADVANCED_FACE($,(#71),#48,.F.);
#212=ADVANCED_FACE($,(#72),#49,.F.);
#213=ADVANCED_FACE($,(#73),#50,.F.);
#214=ADVANCED_FACE($,(#74),#51,.F.);
#215=ADVANCED_FACE($,(#75),#52,.F.);
#216=ADVANCED_FACE($,(#76),#53,.F.);
#217=ADVANCED_FACE($,(#77),#44,.F.);
#218=CLOSED_SHELL($,(#203,#204,#205,#206,#207,#208,#209,#210,#211,#212,
#213,#214,#215,#216,#217));
#219=MANIFOLD_SOLID_BREP('Solid1',#218);
#220=AXIS2_PLACEMENT_3D('placement',#301,#243,#244);
#221=AXIS2_PLACEMENT_3D($,#302,#245,#246);
#222=AXIS2_PLACEMENT_3D($,#304,#247,#248);
#223=AXIS2_PLACEMENT_3D($,#306,#249,#250);
#224=AXIS2_PLACEMENT_3D($,#307,#251,#252);
#225=AXIS2_PLACEMENT_3D($,#309,#253,#254);
#226=AXIS2_PLACEMENT_3D($,#310,#255,#256);
#227=AXIS2_PLACEMENT_3D($,#312,#257,#258);
#228=AXIS2_PLACEMENT_3D($,#313,#259,#260);
#229=AXIS2_PLACEMENT_3D($,#315,#261,#262);
#230=AXIS2_PLACEMENT_3D($,#316,#263,#264);
#231=AXIS2_PLACEMENT_3D($,#317,#265,#266);
#232=AXIS2_PLACEMENT_3D($,#319,#267,#268);
#233=AXIS2_PLACEMENT_3D($,#321,#269,#270);
#234=AXIS2_PLACEMENT_3D($,#322,#271,#272);
#235=AXIS2_PLACEMENT_3D($,#335,#279,#280);
#236=AXIS2_PLACEMENT_3D($,#336,#281,#282);
#237=AXIS2_PLACEMENT_3D($,#344,#285,#286);
#238=AXIS2_PLACEMENT_3D($,#350,#288,#289);
#239=AXIS2_PLACEMENT_3D($,#356,#291,#292);
#240=AXIS2_PLACEMENT_3D($,#362,#294,#295);
#241=AXIS2_PLACEMENT_3D($,#368,#297,#298);
#242=AXIS2_PLACEMENT_3D($,#372,#299,#300);
#243=DIRECTION('axis',(0.,0.,1.));
#244=DIRECTION('refdir',(1.,0.,0.));
#245=DIRECTION('center_axis',(1.,1.7495987460388E-018,0.));
#246=DIRECTION('ref_axis',(0.,0.,-1.));
#247=DIRECTION('center_axis',(1.,1.7495987460388E-018,0.));
#248=DIRECTION('ref_axis',(1.7495987460388E-018,-1.,1.22464679914735E-016));
#249=DIRECTION('center_axis',(-1.,-1.7495987460388E-018,0.));
#250=DIRECTION('ref_axis',(0.,-1.,1.22464679914735E-016));
#251=DIRECTION('center_axis',(1.,1.7495987460388E-018,0.));
#252=DIRECTION('ref_axis',(0.,1.,0.));
#253=DIRECTION('center_axis',(1.,1.7495987460388E-018,0.));
#254=DIRECTION('ref_axis',(0.,-1.,0.));
#255=DIRECTION('center_axis',(1.,1.7495987460388E-018,0.));
#256=DIRECTION('ref_axis',(0.,0.,-1.));
#257=DIRECTION('center_axis',(1.,1.7495987460388E-018,0.));
#258=DIRECTION('ref_axis',(0.,1.,0.));
#259=DIRECTION('center_axis',(-1.,-1.7495987460388E-018,0.));
#260=DIRECTION('ref_axis',(7.75172399283197E-019,-1.,0.));
#261=DIRECTION('center_axis',(-1.,-1.7495987460388E-018,0.));
#262=DIRECTION('ref_axis',(1.7495987460388E-018,-1.,0.));
#263=DIRECTION('center_axis',(1.,1.7495987460388E-018,0.));
#264=DIRECTION('ref_axis',(0.,0.,-1.));
#265=DIRECTION('center_axis',(1.,1.7495987460388E-018,0.));
#266=DIRECTION('ref_axis',(0.,0.,-1.));
#267=DIRECTION('center_axis',(1.,1.7495987460388E-018,0.));
#268=DIRECTION('ref_axis',(1.7495987460388E-018,-1.,1.22464679914735E-016));
#269=DIRECTION('center_axis',(-1.,-1.7495987460388E-018,0.));
#270=DIRECTION('ref_axis',(0.,-1.,1.22464679914735E-016));
#271=DIRECTION('center_axis',(-1.,-1.7495987460388E-018,0.));
#272=DIRECTION('ref_axis',(0.,0.,1.));
#273=DIRECTION($,(-2.01864786286566E-033,1.15377761183014E-015,1.));
#274=DIRECTION($,(1.515196960499E-018,-0.866025403784438,0.500000000000001));
#275=DIRECTION($,(1.515196960499E-018,-0.866025403784439,-0.5));
#276=DIRECTION($,(1.68220655238805E-034,-9.61481343191782E-017,-1.));
#277=DIRECTION($,(-1.515196960499E-018,0.866025403784439,-0.5));
#278=DIRECTION($,(-1.515196960499E-018,0.866025403784439,0.5));
#279=DIRECTION('center_axis',(1.,1.7495987460388E-018,0.));
#280=DIRECTION('ref_axis',(0.,1.,0.));
#281=DIRECTION('center_axis',(8.74799373019402E-019,-0.5,-0.866025403784439));
#282=DIRECTION('ref_axis',(-1.,0.,0.));
#283=DIRECTION($,(-1.,-1.7495987460388E-018,0.));
#284=DIRECTION($,(-1.,-1.7495987460388E-018,0.));
#285=DIRECTION('center_axis',(-8.74799373019401E-019,0.5,-0.866025403784439));
#286=DIRECTION('ref_axis',(-1.,0.,0.));
#287=DIRECTION($,(-1.,-1.7495987460388E-018,0.));
#288=DIRECTION('center_axis',(-1.7495987460388E-018,1.,-1.15377761183014E-015));
#289=DIRECTION('ref_axis',(0.,1.15463194561016E-015,1.));
#290=DIRECTION($,(-1.,-1.7495987460388E-018,0.));
#291=DIRECTION('center_axis',(-8.74799373019403E-019,0.500000000000001,
0.866025403784438));
#292=DIRECTION('ref_axis',(1.,0.,0.));
#293=DIRECTION($,(1.,1.7495987460388E-018,0.));
#294=DIRECTION('center_axis',(1.7495987460388E-018,-1.,9.61481343191782E-017));
#295=DIRECTION('ref_axis',(0.,-8.88178419700125E-017,-1.));
#296=DIRECTION($,(-1.,-1.7495987460388E-018,0.));
#297=DIRECTION('center_axis',(8.74799373019402E-019,-0.5,0.866025403784439));
#298=DIRECTION('ref_axis',(1.,0.,0.));
#299=DIRECTION('center_axis',(-1.,-1.7495987460388E-018,0.));
#300=DIRECTION('ref_axis',(0.,1.,0.));
#301=CARTESIAN_POINT('',(0.,0.,0.));
#302=CARTESIAN_POINT('Origin',(0.100000000000002,-2.08202250778618E-017,
0.));
#303=CARTESIAN_POINT('',(2.21502229313759E-015,3.1,0.));
#304=CARTESIAN_POINT('Origin',(2.22044604925031E-015,-2.09951849524656E-017,
0.));
#305=CARTESIAN_POINT('',(0.100000000000002,3.,-7.34788079488412E-016));
#306=CARTESIAN_POINT('Origin',(0.100000000000002,-2.08202250778618E-017,
0.));
#307=CARTESIAN_POINT('Origin',(7.25,-8.31059404368432E-018,0.));
#308=CARTESIAN_POINT('',(11.38655,3.,3.67394039744206E-016));
#309=CARTESIAN_POINT('Origin',(11.38655,-1.0732913507575E-018,0.));
#310=CARTESIAN_POINT('Origin',(2.22044604925031E-015,4.,0.));
#311=CARTESIAN_POINT('',(2.22044604925031E-015,5.,0.));
#312=CARTESIAN_POINT('Origin',(2.22044604925031E-015,-2.09951849524656E-017,
0.));
#313=CARTESIAN_POINT('Origin',(11.693275,-5.36645675378752E-019,0.));
#314=CARTESIAN_POINT('',(12.,2.38655,-2.92268081850511E-016));
#315=CARTESIAN_POINT('Origin',(12.,-2.40741243048404E-034,0.));
#316=CARTESIAN_POINT('Origin',(12.,1.5,0.));
#317=CARTESIAN_POINT('Origin',(-5.4,-3.04430181810752E-017,0.));
#318=CARTESIAN_POINT('',(-6.,4.4,0.));
#319=CARTESIAN_POINT('Origin',(-6.,-3.14927774286985E-017,0.));
#320=CARTESIAN_POINT('',(-5.4,5.,-1.22464679914735E-015));
#321=CARTESIAN_POINT('Origin',(-5.4,-3.04430181810752E-017,0.));
#322=CARTESIAN_POINT('Origin',(-6.,3.94337567297406,0.));
#323=CARTESIAN_POINT('',(-6.,2.5,-1.44337567297407));
#324=CARTESIAN_POINT('',(-6.,2.5,1.44337567297406));
#325=CARTESIAN_POINT($,(-6.,2.5,0.721687836487029));
#326=CARTESIAN_POINT('',(-6.,3.2203230214627E-016,2.88675134594813));
#327=CARTESIAN_POINT($,(-6.,0.625,2.52590742770461));
#328=CARTESIAN_POINT('',(-6.,-2.5,1.44337567297407));
#329=CARTESIAN_POINT($,(-6.,-1.875,1.80421959121758));
#330=CARTESIAN_POINT('',(-6.,-2.5,-1.44337567297406));
#331=CARTESIAN_POINT($,(-6.,-2.5,-0.721687836487032));
#332=CARTESIAN_POINT('',(-6.,-3.79637636329404E-016,-2.88675134594813));
#333=CARTESIAN_POINT($,(-6.,-0.625,-2.52590742770461));
#334=CARTESIAN_POINT($,(-6.,1.875,-1.80421959121758));
#335=CARTESIAN_POINT('Origin',(-3.,-2.62439811905821E-017,0.));
#336=CARTESIAN_POINT('Origin',(-6.,-3.79637636329404E-016,-2.88675134594813));
#337=CARTESIAN_POINT('',(-2.99999999999999,-8.27418472230751E-016,-2.88675134594813));
#338=CARTESIAN_POINT('',(-2.99999999999999,-2.5,-1.44337567297406));
#339=CARTESIAN_POINT('Ctrl Pts',(-3.,4.18666432562486E-015,-2.88675134594813));
#340=CARTESIAN_POINT('Ctrl Pts',(-2.58333333333333,-1.25,-2.1650635094611));
#341=CARTESIAN_POINT('Ctrl Pts',(-3.,-2.5,-1.44337567297406));
#342=CARTESIAN_POINT($,(-4.5,-8.32667268468867E-016,-2.88675134594813));
#343=CARTESIAN_POINT($,(-4.5,-2.5,-1.44337567297406));
#344=CARTESIAN_POINT('Origin',(-6.,2.5,-1.44337567297407));
#345=CARTESIAN_POINT('',(-2.99999999999999,2.5,-1.44337567297407));
#346=CARTESIAN_POINT('Ctrl Pts',(-3.,2.5,-1.44337567297406));
#347=CARTESIAN_POINT('Ctrl Pts',(-2.58333333333333,1.25,-2.1650635094611));
#348=CARTESIAN_POINT('Ctrl Pts',(-3.,-3.86245260290753E-015,-2.88675134594813));
#349=CARTESIAN_POINT($,(-4.5,2.5,-1.44337567297407));
#350=CARTESIAN_POINT('Origin',(-6.,2.5,1.44337567297406));
#351=CARTESIAN_POINT('',(-2.99999999999999,2.5,1.44337567297406));
#352=CARTESIAN_POINT('Ctrl Pts',(-3.,2.5,1.44337567297407));
#353=CARTESIAN_POINT('Ctrl Pts',(-2.58333333333333,2.5,-2.77555756156289E-015));
#354=CARTESIAN_POINT('Ctrl Pts',(-3.,2.5,-1.44337567297407));
#355=CARTESIAN_POINT($,(-4.5,2.5,1.44337567297406));
#356=CARTESIAN_POINT('Origin',(-6.,-1.04975924762328E-017,2.88675134594813));
#357=CARTESIAN_POINT('',(-2.99999999999999,-2.72306959918173E-016,2.88675134594813));
#358=CARTESIAN_POINT('Ctrl Pts',(-3.,-4.14000835906382E-015,2.88675134594813));
#359=CARTESIAN_POINT('Ctrl Pts',(-2.58333333333333,1.25,2.16506350946109));
#360=CARTESIAN_POINT('Ctrl Pts',(-3.,2.50000000000001,1.44337567297406));
#361=CARTESIAN_POINT($,(-4.5,-2.77555756156289E-016,2.88675134594813));
#362=CARTESIAN_POINT('Origin',(-6.,-2.5,-1.44337567297406));
#363=CARTESIAN_POINT('',(-2.99999999999999,-2.5,1.44337567297406));
#364=CARTESIAN_POINT('Ctrl Pts',(-3.,-2.5,-1.44337567297407));
#365=CARTESIAN_POINT('Ctrl Pts',(-2.58333333333333,-2.5,5.55111512312578E-016));
#366=CARTESIAN_POINT('Ctrl Pts',(-3.,-2.5,1.44337567297407));
#367=CARTESIAN_POINT($,(-4.5,-2.5,1.44337567297406));
#368=CARTESIAN_POINT('Origin',(-6.,-2.5,1.44337567297407));
#369=CARTESIAN_POINT('Ctrl Pts',(-3.,-2.5,1.44337567297406));
#370=CARTESIAN_POINT('Ctrl Pts',(-2.58333333333333,-1.25,2.1650635094611));
#371=CARTESIAN_POINT('Ctrl Pts',(-3.,4.74177583793744E-015,2.88675134594813));
#372=CARTESIAN_POINT('Origin',(-2.16666666666666,-2.47859822355497E-017,
0.));
#373=UNCERTAINTY_MEASURE_WITH_UNIT(LENGTH_MEASURE(0.01),#375,
'DISTANCE_ACCURACY_VALUE',
'Maximum model space distance between geometric entities at asserted c
onnectivities');
#374=(
GEOMETRIC_REPRESENTATION_CONTEXT(3)
GLOBAL_UNCERTAINTY_ASSIGNED_CONTEXT((#373))
GLOBAL_UNIT_ASSIGNED_CONTEXT((#375,#378,#376))
REPRESENTATION_CONTEXT('','3D')
);
#375=(
LENGTH_UNIT()
NAMED_UNIT(*)
SI_UNIT(.MILLI.,.METRE.)
);
#376=(
NAMED_UNIT(*)
SI_UNIT($,.STERADIAN.)
SOLID_ANGLE_UNIT()
);
#377=DIMENSIONAL_EXPONENTS(0.,0.,0.,0.,0.,0.,0.);
#378=(
CONVERSION_BASED_UNIT('degree',#380)
NAMED_UNIT(#377)
PLANE_ANGLE_UNIT()
);
#379=(
NAMED_UNIT(*)
PLANE_ANGLE_UNIT()
SI_UNIT($,.RADIAN.)
);
#380=PLANE_ANGLE_MEASURE_WITH_UNIT(PLANE_ANGLE_MEASURE(0.01745329252),#379);
#381=SHAPE_DEFINITION_REPRESENTATION(#382,#383);
#382=PRODUCT_DEFINITION_SHAPE('',$,#385);
#383=SHAPE_REPRESENTATION('',(#220),#374);
#384=PRODUCT_DEFINITION_CONTEXT('3D Mechanical Parts',#388,'design');
#385=PRODUCT_DEFINITION('200612-1','200612-1',#386,#384);
#386=PRODUCT_DEFINITION_FORMATION('',$,#390);
#387=APPLICATION_PROTOCOL_DEFINITION('international standard',
'automotive_design',2009,#388);
#388=APPLICATION_CONTEXT(
'Core Data for Automotive Mechanical Design Process');
#389=PRODUCT_CONTEXT('3D Mechanical Parts',#388,'mechanical');
#390=PRODUCT('200612-1','200612-1',$,(#389));
#391=PRESENTATION_STYLE_ASSIGNMENT((#392));
#392=SURFACE_STYLE_USAGE(.BOTH.,#393);
#393=SURFACE_SIDE_STYLE($,(#394));
#394=SURFACE_STYLE_FILL_AREA(#395);
#395=FILL_AREA_STYLE($,(#396));
#396=FILL_AREA_STYLE_COLOUR($,#397);
#397=COLOUR_RGB('',0.63921568627451,0.63921568627451,0.686274509803922);
ENDSEC;
END-ISO-10303-21;
