                                                                        S      1
,,,6H729403,22HAutodesk Inventor 2021,7Hunknown,32,38,7,99,15,,1.,2,2HMMG      1
,1,0.08,15H20230123.080419,0.01,10000.,13HMrówczyńska,,11,0,15H2016051G      2
8.082010;                                                               G      3
     186       1                                                00000000D      1
     186             -73       1       0                               0D      2
     514       2                                                00010000D      3
     514                       1       1                               0D      4
     510       3                                                00010000D      5
     510             -73       1       1                               0D      6
     510       4                                                00010000D      7
     510             -73       1       1                               0D      8
     510       5                                                00010000D      9
     510             -73       1       1                               0D     10
     510       6                                                00010000D     11
     510             -73       1       1                               0D     12
     510       7                                                00010000D     13
     510             -73       1       1                               0D     14
     510       8                                                00010000D     15
     510             -73       1       1                               0D     16
     508       9                                                00010000D     17
     508                       1       1                               0D     18
     508      10                                                00010000D     19
     508                       1       1                               0D     20
     508      11                                                00010000D     21
     508                       1       1                               0D     22
     508      12                                                00010000D     23
     508                       1       1                               0D     24
     508      13                                                00010000D     25
     508                       1       1                               0D     26
     508      14                                                00010000D     27
     508                       1       1                               0D     28
     126      15                                                00010000D     29
     126       0               2       0                               0D     30
     126      17                                                00010000D     31
     126       0               2       0                               0D     32
     126      19                                                00010000D     33
     126       0               2       0                               0D     34
     126      21                                                00010000D     35
     126       0               2       0                               0D     36
     126      23                                                00010000D     37
     126       0               2       0                               0D     38
     126      25                                                00010000D     39
     126       0               2       0                               0D     40
     126      27                                                00010000D     41
     126       0               2       0                               0D     42
     126      29                                                00010000D     43
     126       0               2       0                               0D     44
     126      31                                                00010000D     45
     126       0               2       0                               0D     46
     126      33                                                00010000D     47
     126       0               2       0                               0D     48
     126      35                                                00010000D     49
     126       0               2       0                               0D     50
     126      37                                                00010000D     51
     126       0               2       0                               0D     52
     128      39                                                00010000D     53
     128       0     -73       5       0                               0D     54
     128      44                                                00010000D     55
     128       0     -73       6       0                               0D     56
     128      50                                                00010000D     57
     128       0     -73       5       0                               0D     58
     128      55                                                00010000D     59
     128       0     -73       5       0                               0D     60
     128      60                                                00010000D     61
     128       0     -73       5       0                               0D     62
     128      65                                                00010000D     63
     128       0     -73       5       0                               0D     64
     502      70                                                00010000D     65
     502                       3       1                               0D     66
     504      73                                                00010001D     67
     504                       3       1                               0D     68
     406      76                                                00000000D     69
     406                       1      15                               0D     70
     314      77                                                00000200D     71
     314                       1       0                               0D     72
     314      78                                                00000200D     73
     314                       1       0                               0D     74
186,3,1,0,0,1,69;                                                      1P      1
514,6,5,1,7,1,9,1,11,1,13,1,15,1;                                      3P      2
510,53,1,1,17;                                                         5P      3
510,55,1,1,19;                                                         7P      4
510,57,1,1,21;                                                         9P      5
510,59,1,1,23;                                                        11P      6
510,61,1,1,25;                                                        13P      7
510,63,1,1,27;                                                        15P      8
508,4,0,67,1,1,0,0,67,2,0,0,0,67,3,1,0,0,67,4,1,0;                    17P      9
508,4,0,67,5,1,0,0,67,6,0,0,0,67,7,1,0,0,67,2,1,0;                    19P     10
508,4,0,67,8,1,0,0,67,9,0,0,0,67,10,1,0,0,67,6,1,0;                   21P     11
508,4,0,67,11,1,0,0,67,4,0,0,0,67,12,1,0,0,67,9,1,0;                  23P     12
508,4,0,67,12,0,0,0,67,3,0,0,0,67,7,0,0,0,67,10,0,0;                  25P     13
508,4,0,67,1,0,0,0,67,11,0,0,0,67,8,0,0,0,67,5,0,0;                   27P     14
126,1,1,0,0,1,0,-1.,-1.,0.,0.,1.,1.,-100.,8.,-100.,0.,8.,-100.,       29P     15
-1.,0.,0.,0.,0.;                                                      29P     16
126,1,1,0,0,1,0,0.,0.,1.,1.,1.,1.,0.,0.,-100.,0.,8.,-100.,0.,1.,      31P     17
0.,0.,0.;                                                             31P     18
126,1,1,0,0,1,0,0.,0.,1.,1.,1.,1.,0.,0.,-100.,-100.,0.,-100.,0.,      33P     19
1.,0.,0.,0.;                                                          33P     20
126,1,1,0,0,1,0,0.,0.,1.,1.,1.,1.,-100.,0.,-100.,-100.,8.,-100.,      35P     21
0.,1.,0.,0.,0.;                                                       35P     22
126,1,1,0,0,1,0,-1.,-1.,0.,0.,1.,1.,-2.46519032881566D-31,8.,         37P     23
-100.,1.85825683338866D-15,8.,0.,-1.,0.,0.,0.,0.;                     37P     24
126,1,1,0,0,1,0,0.,0.,1.,1.,1.,1.,1.85825683338866D-15,0.,0.,         39P     25
1.85825683338866D-15,8.,0.,0.,1.,0.,0.,0.;                            39P     26
126,1,1,0,0,1,0,0.,0.,1.,1.,1.,1.,1.85825683338866D-15,0.,0.,         41P     27
-2.46519032881566D-31,0.,-100.,0.,1.,0.,0.,0.;                        41P     28
126,1,1,0,0,1,0,-1.,-1.,0.,0.,1.,1.,0.,8.,0.,-100.,8.,0.,-1.,0.,      43P     29
0.,0.,0.;                                                             43P     30
126,1,1,0,0,1,0,0.,0.,1.,1.,1.,1.,-100.,0.,0.,-100.,8.,0.,0.,1.,      45P     31
0.,0.,0.;                                                             45P     32
126,1,1,0,0,1,0,0.,0.,1.,1.,1.,1.,-100.,0.,0.,0.,0.,0.,0.,1.,0.,      47P     33
0.,0.;                                                                47P     34
126,1,1,0,0,1,0,-1.,-1.,0.,0.,1.,1.,-100.,8.,0.,-100.,8.,-100.,       49P     35
-1.,0.,0.,0.,0.;                                                      49P     36
126,1,1,0,0,1,0,0.,0.,1.,1.,1.,1.,-100.,0.,-100.,-100.,0.,0.,0.,      51P     37
1.,0.,0.,0.;                                                          51P     38
128,1,1,1,1,0,0,1,0,0,-100.001,-100.001,0.00100000000000477,          53P     39
0.00100000000000477,-0.001,-0.001,8.001,8.001,1.,1.,1.,1.,            53P     40
0.00100000000001543,-0.001,-100.,-100.001,-0.001,-100.,               53P     41
0.00100000000001543,8.001,-100.,-100.001,8.001,-100.,-100.001,        53P     42
0.00100000000000477,-0.001,8.001;                                     53P     43
128,1,1,1,1,0,0,1,0,0,-100.001,-100.001,0.00100000000000477,          55P     44
0.00100000000000477,-0.001,-0.001,8.001,8.001,1.,1.,1.,1.,            55P     45
1.85827541595699D-15,-0.001,0.00100000000001543,                      55P     46
-1.85825683338866D-20,-0.001,-100.001,1.85827541595699D-15,           55P     47
8.001,0.00100000000001543,-1.85825683338504D-20,8.001,-100.001,       55P     48
-100.001,0.00100000000000477,-0.001,8.001;                            55P     49
128,1,1,1,1,0,0,1,0,0,-100.001,-100.001,0.00100000000000477,          57P     50
0.00100000000000477,-0.001,-0.001,8.001,8.001,1.,1.,1.,1.,            57P     51
-100.001,-0.001,0.,0.00100000000000186,-0.001,0.,-100.001,8.001,      57P     52
0.,0.000999999999997669,8.001,0.,-100.001,0.00100000000000477,        57P     53
-0.001,8.001;                                                         57P     54
128,1,1,1,1,0,0,1,0,0,-100.001,-100.001,0.00100000000000477,          59P     55
0.00100000000000477,-0.001,-0.001,8.001,8.001,1.,1.,1.,1.,-100.,      59P     56
-0.001,-100.001,-100.,-0.001,0.001,-100.,8.001,-100.001,-100.,        59P     57
8.001,0.000999999999997669,-100.001,0.00100000000000477,-0.001,       59P     58
8.001;                                                                59P     59
128,1,1,1,1,0,0,1,0,0,-50.001,-50.001,50.001,50.001,-50.001,          61P     60
-50.001,50.001,50.001,1.,1.,1.,1.,-100.001,0.,                        61P     61
0.000999999999997669,-100.001,0.,-100.001,0.000999999999997669,       61P     62
0.,0.000999999999997669,0.000999999999997669,0.,-100.001,             61P     63
-50.001,50.001,-50.001,50.001;                                        61P     64
128,1,1,1,1,0,0,1,0,0,-50.001,-50.001,50.001,50.001,-50.001,          63P     65
-50.001,50.001,50.001,1.,1.,1.,1.,-100.001,8.,-100.001,-100.001,      63P     66
8.,0.000999999999997669,0.000999999999997669,8.,-100.001,             63P     67
0.000999999999997669,8.,0.000999999999997669,-50.001,50.001,          63P     68
-50.001,50.001;                                                       63P     69
502,8,-100.,8.,-100.,0.,8.,-100.,0.,0.,-100.,-100.,0.,-100.,          65P     70
1.85825683338866D-15,8.,0.,1.85825683338866D-15,0.,0.,-100.,8.,       65P     71
0.,-100.,0.,0.;                                                       65P     72
504,12,29,65,1,65,2,31,65,3,65,2,33,65,3,65,4,35,65,4,65,1,37,        67P     73
65,2,65,5,39,65,6,65,5,41,65,6,65,3,43,65,5,65,7,45,65,8,65,7,        67P     74
47,65,8,65,6,49,65,7,65,1,51,65,4,65,8;                               67P     75
406,1,7HBryła1;                                                      69P     76
314,74.9019607843137,74.9019607843137,74.9019607843137,;              71P     77
314,50.1960784313725,50.1960784313725,50.1960784313725,;              73P     78
S      1G      3D     74P     78                                        T      1
