                                                                        S      1
,,,6H622912,22HAutodesk Inventor 2021,7Hunknown,32,38,7,99,15,,1.,2,2HMMG      1
,1,0.08,15H20221018.075106,0.01,10000.,13HMrówczyńska,,11,0,15H2010090G      2
5.122300;                                                               G      3
     186       1                                                00000000D      1
     186            -143       1       0                               0D      2
     514       2                                                00010000D      3
     514                       1       1                               0D      4
     510       3                                                00010000D      5
     510            -143       1       1                               0D      6
     510       4                                                00010000D      7
     510            -143       1       1                               0D      8
     510       5                                                00010000D      9
     510            -143       1       1                               0D     10
     510       6                                                00010000D     11
     510            -143       1       1                               0D     12
     510       7                                                00010000D     13
     510            -143       1       1                               0D     14
     510       8                                                00010000D     15
     510            -143       1       1                               0D     16
     510       9                                                00010000D     17
     510            -143       1       1                               0D     18
     510      10                                                00010000D     19
     510            -143       1       1                               0D     20
     510      11                                                00010000D     21
     510            -143       1       1                               0D     22
     510      12                                                00010000D     23
     510            -143       1       1                               0D     24
     510      13                                                00010000D     25
     510            -143       1       1                               0D     26
     508      14                                                00010000D     27
     508                       2       1                               0D     28
     508      16                                                00010000D     29
     508                       1       1                               0D     30
     508      17                                                00010000D     31
     508                       1       1                               0D     32
     508      18                                                00010000D     33
     508                       1       1                               0D     34
     508      19                                                00010000D     35
     508                       1       1                               0D     36
     508      20                                                00010000D     37
     508                       1       1                               0D     38
     508      21                                                00010000D     39
     508                       1       1                               0D     40
     508      22                                                00010000D     41
     508                       1       1                               0D     42
     508      23                                                00010000D     43
     508                       1       1                               0D     44
     508      24                                                00010000D     45
     508                       1       1                               0D     46
     508      25                                                00010000D     47
     508                       1       1                               0D     48
     508      26                                                00010000D     49
     508                       1       1                               0D     50
     508      27                                                00010000D     51
     508                       1       1                               0D     52
     508      28                                                00010000D     53
     508                       1       1                               0D     54
     508      29                                                00010000D     55
     508                       1       1                               0D     56
     126      30                                                00010000D     57
     126       0               7       0                               0D     58
     126      37                                                00010000D     59
     126       0               7       0                               0D     60
     126      44                                                00010000D     61
     126       0               4       0                               0D     62
     126      48                                                00010000D     63
     126       0               8       0                               0D     64
     126      56                                                00010000D     65
     126       0               5       0                               0D     66
     126      61                                                00010000D     67
     126       0               2       0                               0D     68
     126      63                                                00010000D     69
     126       0               5       0                               0D     70
     126      68                                                00010000D     71
     126       0               2       0                               0D     72
     126      70                                                00010000D     73
     126       0               2       0                               0D     74
     126      72                                                00010000D     75
     126       0               2       0                               0D     76
     126      74                                                00010000D     77
     126       0               2       0                               0D     78
     126      76                                                00010000D     79
     126       0               6       0                               0D     80
     126      82                                                00010000D     81
     126       0               7       0                               0D     82
     126      89                                                00010000D     83
     126       0               2       0                               0D     84
     126      91                                                00010000D     85
     126       0               3       0                               0D     86
     126      94                                                00010000D     87
     126       0               2       0                               0D     88
     126      96                                                00010000D     89
     126       0               2       0                               0D     90
     126      98                                                00010000D     91
     126       0               2       0                               0D     92
     126     100                                                00010000D     93
     126       0               2       0                               0D     94
     126     102                                                00010000D     95
     126       0               2       0                               0D     96
     126     104                                                00010000D     97
     126       0               3       0                               0D     98
     126     107                                                00010000D     99
     126       0               2       0                               0D    100
     126     109                                                00010000D    101
     126       0               2       0                               0D    102
     126     111                                                00010000D    103
     126       0               2       0                               0D    104
     126     113                                                00010000D    105
     126       0               2       0                               0D    106
     126     115                                                00010000D    107
     126       0               2       0                               0D    108
     126     117                                                00010000D    109
     126       0               2       0                               0D    110
     126     119                                                00010000D    111
     126       0               2       0                               0D    112
     128     121                                                00010000D    113
     128       0    -143      19       0                               0D    114
     128     140                                                00010000D    115
     128       0    -143       7       0                               0D    116
     128     147                                                00010000D    117
     128       0    -143       4       0                               0D    118
     128     151                                                00010000D    119
     128       0    -143      10       0                               0D    120
     128     161                                                00010000D    121
     128       0    -143       3       0                               0D    122
     128     164                                                00010000D    123
     128       0    -143       3       0                               0D    124
     128     167                                                00010000D    125
     128       0    -143       4       0                               0D    126
     128     171                                                00010000D    127
     128       0    -143       5       0                               0D    128
     128     176                                                00010000D    129
     128       0    -143       5       0                               0D    130
     128     181                                                00010000D    131
     128       0    -143       4       0                               0D    132
     128     185                                                00010000D    133
     128       0    -143       5       0                               0D    134
     502     190                                                00010000D    135
     502                       6       1                               0D    136
     504     196                                                00010001D    137
     504                       8       1                               0D    138
     406     204                                                00000000D    139
     406                       1      15                               0D    140
     314     205                                                00000200D    141
     314                       1       0                               0D    142
     314     206                                                00000200D    143
     314                       1       0                               0D    144
186,3,1,0,0,1,139;                                                     1P      1
514,11,5,1,7,1,9,1,11,1,13,1,15,1,17,1,19,1,21,1,23,1,25,1;            3P      2
510,113,1,1,27;                                                        5P      3
510,115,1,1,29;                                                        7P      4
510,117,1,1,31;                                                        9P      5
510,119,1,1,33;                                                       11P      6
510,121,1,1,35;                                                       13P      7
510,123,2,1,37,39;                                                    15P      8
510,125,1,1,41;                                                       17P      9
510,127,2,1,43,45;                                                    19P     10
510,129,1,1,47;                                                       21P     11
510,131,2,1,49,51;                                                    23P     12
510,133,2,1,53,55;                                                    25P     13
508,5,0,137,1,0,0,0,137,2,0,0,0,137,3,1,0,0,137,4,0,0,0,137,3,0,      27P     14
0;                                                                    27P     15
508,4,0,137,5,0,0,0,137,6,0,0,0,137,7,0,0,0,137,8,1,0;                29P     16
508,4,0,137,9,0,0,0,137,8,0,0,0,137,10,0,0,0,137,11,1,0;              31P     17
508,4,0,137,12,0,0,0,137,11,0,0,0,137,13,0,0,0,137,14,1,0;            33P     18
508,4,0,137,15,0,0,0,137,14,0,0,0,137,16,0,0,0,137,6,1,0;             35P     19
508,4,0,137,17,1,0,0,137,18,0,0,0,137,19,1,0,0,137,20,1,0;            37P     20
508,2,0,137,1,1,0,0,137,2,1,0;                                        39P     21
508,4,0,137,21,1,0,0,137,22,0,0,0,137,23,1,0,0,137,18,1,0;            41P     22
508,4,0,137,24,1,0,0,137,25,0,0,0,137,26,1,0,0,137,22,1,0;            43P     23
508,1,0,137,4,1,0;                                                    45P     24
508,4,0,137,27,1,0,0,137,20,0,0,0,137,28,1,0,0,137,25,1,0;            47P     25
508,4,0,137,28,0,0,0,137,19,0,0,0,137,23,0,0,0,137,26,0,0;            49P     26
508,4,0,137,7,1,0,0,137,16,1,0,0,137,13,1,0,0,137,10,1,0;             51P     27
508,4,0,137,17,0,0,0,137,27,0,0,0,137,24,0,0,0,137,21,0,0;            53P     28
508,4,0,137,5,1,0,0,137,9,1,0,0,137,12,1,0,0,137,15,1,0;              55P     29
126,4,2,0,0,0,0,-3.14159265358979,-3.14159265358979,                  57P     30
-3.14159265358979,-1.5707963267949,-1.5707963267949,0.,0.,0.,1.,      57P     31
0.707106781186547,1.,0.707106781186547,1.,-2.220446D-15,              57P     32
2.54149999999999,5.,-2.220446D-15,2.54149999999999,2.5415,            57P     33
-2.220446D-15,4.99999999999999,2.5415,-2.220446D-15,                  57P     34
7.45849999999999,2.5415,-2.220446D-15,7.45849999999999,5.,            57P     35
-3.14159265358979,0.,0.,0.,0.;                                        57P     36
126,4,2,0,0,0,0,0.,0.,0.,1.5707963267949,1.5707963267949,             59P     37
3.14159265358979,3.14159265358979,3.14159265358979,1.,                59P     38
0.707106781186547,1.,0.707106781186547,1.,-2.220446D-15,              59P     39
7.45849999999999,5.,-2.220446D-15,7.45849999999999,7.4585,            59P     40
-2.220446D-15,4.99999999999999,7.4585,-2.220446D-15,                  59P     41
2.54149999999999,7.4585,-2.220446D-15,2.54149999999999,5.,0.,         59P     42
3.14159265358979,0.,0.,0.;                                            59P     43
126,1,1,0,0,1,0,-5.89790522676429,-5.89790522676429,                  61P     44
5.89790522676429,5.89790522676429,1.,1.,-6.66133814775094D-15,        61P     45
7.45849999999999,5.,29.,7.4585,5.,-5.89790522676429,                  61P     46
5.89790522676429,0.,0.,0.;                                            61P     47
126,8,2,0,1,0,0,0.,0.,0.,1.5707963267949,1.5707963267949,             63P     48
3.14159265358979,3.14159265358979,4.71238898038469,                   63P     49
4.71238898038469,6.28318530717959,6.28318530717959,                   63P     50
6.28318530717959,1.,0.707106781186547,1.,0.707106781186547,1.,        63P     51
0.707106781186548,1.,0.707106781186548,1.,29.,7.4585,5.,29.,          63P     52
7.4585,2.5415,29.,5.,2.5415,29.,2.5415,2.5415,29.,2.5415,5.,29.,      63P     53
2.5415,7.4585,29.,5.,7.4585,29.,7.4585,7.4585,29.,7.4585,5.,0.,       63P     54
6.28318530717959,0.,0.,0.;                                            63P     55
126,4,2,0,0,0,0,0.,0.,0.,1.5707963267949,1.5707963267949,             65P     56
3.14159265358979,3.14159265358979,3.14159265358979,1.,                65P     57
0.707106781186549,1.,0.707106781186548,1.,22.5,17.,12.,26.5,17.,      65P     58
12.,26.5,13.,12.,26.5,9.00000000000001,12.,22.5,9.,12.,0.,            65P     59
3.14159265358979,0.,0.,0.;                                            65P     60
126,1,1,0,0,1,0,0.,0.,1.,1.,1.,1.,22.5,17.,0.,22.5,17.,12.,0.,        67P     61
1.,0.,0.,0.;                                                          67P     62
126,4,2,0,0,0,0,-3.14159265358979,-3.14159265358979,                  69P     63
-3.14159265358979,-1.5707963267949,-1.5707963267949,0.,0.,0.,1.,      69P     64
0.707106781186548,1.,0.707106781186549,1.,22.5,9.,0.,26.5,            69P     65
9.00000000000001,0.,26.5,13.,0.,26.5,17.,0.,22.5,17.,0.,              69P     66
-3.14159265358979,0.,0.,0.,0.;                                        69P     67
126,1,1,0,0,1,0,0.,0.,1.,1.,1.,1.,22.5,9.,0.,22.5,9.,12.,0.,1.,       71P     68
0.,0.,0.;                                                             71P     69
126,1,1,0,0,1,0,0.,0.,1.,1.,1.,1.,22.5,9.,12.,6.5,9.,12.,0.,1.,       73P     70
0.,0.,0.;                                                             73P     71
126,1,1,0,0,1,0,0.,0.,1.,1.,1.,1.,6.5,8.99999999999999,0.,22.5,       75P     72
8.99999999999999,0.,0.,1.,0.,0.,0.;                                   75P     73
126,1,1,0,0,1,0,0.,0.,1.,1.,1.,1.,6.5,8.99999999999999,0.,6.5,        77P     74
8.99999999999999,12.,0.,1.,0.,0.,0.;                                  77P     75
126,4,2,0,0,0,0,-8.32667268468867D-16,-8.32667268468867D-16,          79P     76
-8.32667268468867D-16,1.5707963267949,1.5707963267949,                79P     77
3.14159265358979,3.14159265358979,3.14159265358979,1.,                79P     78
0.707106781186548,1.,0.707106781186547,1.,6.5,8.99999999999999,       79P     79
12.,2.5,8.99999999999999,12.,2.5,13.,12.,2.49999999999999,17.,        79P     80
12.,6.5,17.,12.,-8.32667268468867D-16,3.14159265358979,0.,0.,0.;      79P     81
126,4,2,0,0,0,0,-3.14159265358979,-3.14159265358979,                  81P     82
-3.14159265358979,-1.5707963267949,-1.5707963267949,                  81P     83
8.32667268468867D-16,8.32667268468867D-16,8.32667268468867D-16,       81P     84
1.,0.707106781186547,1.,0.707106781186548,1.,6.5,17.,0.,              81P     85
2.49999999999999,17.,0.,2.5,13.,0.,2.5,8.99999999999999,0.,6.5,       81P     86
8.99999999999999,0.,-3.14159265358979,8.32667268468867D-16,0.,        81P     87
0.,0.;                                                                81P     88
126,1,1,0,0,1,0,0.,0.,1.,1.,1.,1.,6.49999999999999,17.,0.,            83P     89
6.49999999999999,17.,12.,0.,1.,0.,0.,0.;                              83P     90
126,1,1,0,0,1,0,6.93889390390722D-17,6.93889390390722D-17,1.,1.,      85P     91
1.,1.,6.49999999999999,17.,12.,22.5,17.,12.,                          85P     92
6.93889390390722D-17,1.,0.,0.,0.;                                     85P     93
126,1,1,0,0,1,0,0.,0.,1.,1.,1.,1.,22.5,17.,0.,6.49999999999999,       87P     94
17.,0.,0.,1.,0.,0.,0.;                                                87P     95
126,1,1,0,0,1,0,0.,0.,1.,1.,1.,1.,0.,0.,12.,0.,20.,12.,0.,1.,0.,      89P     96
0.,0.;                                                                89P     97
126,1,1,0,0,1,0,0.,0.,1.,1.,1.,1.,-4.440892D-15,20.,0.,               91P     98
-4.440892D-15,20.,12.,0.,1.,0.,0.,0.;                                 91P     99
126,1,1,0,0,1,0,0.,0.,1.,1.,1.,1.,-4.440892D-15,20.,0.,               93P    100
-4.440892D-15,0.,0.,0.,1.,0.,0.,0.;                                   93P    101
126,1,1,0,0,1,0,0.,0.,1.,1.,1.,1.,0.,0.,0.,0.,0.,12.,0.,1.,0.,        95P    102
0.,0.;                                                                95P    103
126,1,1,0,0,1,0,9.18805172413793D-17,9.18805172413793D-17,1.,1.,      97P    104
1.,1.,-4.440892D-15,20.,12.,29.,20.,12.,9.18805172413793D-17,1.,      97P    105
0.,0.,0.;                                                             97P    106
126,1,1,0,0,1,0,0.,0.,1.,1.,1.,1.,29.,20.,0.,29.,20.,12.,0.,1.,       99P    107
0.,0.,0.;                                                             99P    108
126,1,1,0,0,1,0,0.,0.,1.,1.,1.,1.,29.,20.,0.,                        101P    109
-4.44089209850063D-15,20.,0.,0.,1.,0.,0.,0.;                         101P    110
126,1,1,0,0,1,0,0.,0.,1.,1.,1.,1.,29.,20.,12.,29.,0.,12.,0.,1.,      103P    111
0.,0.,0.;                                                            103P    112
126,1,1,0,0,1,0,0.,0.,1.,1.,1.,1.,29.,0.,0.,29.,0.,12.,0.,1.,0.,     105P    113
0.,0.;                                                               105P    114
126,1,1,0,0,1,0,0.,0.,1.,1.,1.,1.,29.,0.,0.,29.,20.,0.,0.,1.,0.,     107P    115
0.,0.;                                                               107P    116
126,1,1,0,0,1,0,0.,0.,1.,1.,1.,1.,29.,0.,12.,0.,0.,12.,0.,1.,0.,     109P    117
0.,0.;                                                               109P    118
126,1,1,0,0,1,0,0.,0.,1.,1.,1.,1.,0.,0.,0.,29.,0.,0.,0.,1.,0.,       111P    119
0.,0.;                                                               111P    120
128,1,8,1,2,0,1,0,0,1,-5.89790522676429,-5.89790522676429,           113P    121
5.89790522676429,5.89790522676429,-3.14159265358979,                 113P    122
-3.14159265358979,-3.14159265358979,-1.5707963267949,                113P    123
-1.5707963267949,0.,0.,1.5707963267949,1.5707963267949,              113P    124
3.14159265358979,3.14159265358979,3.14159265358979,1.,1.,            113P    125
0.707106781186548,0.707106781186548,1.,1.,0.707106781186548,         113P    126
0.707106781186548,1.,1.,0.707106781186548,0.707106781186548,1.,      113P    127
1.,0.707106781186548,0.707106781186548,1.,1.,                        113P    128
-6.66133814775094D-15,7.45849999999999,5.,29.,7.4585,5.,             113P    129
-6.63481914067525D-15,7.45849999999999,7.4585,29.,7.4585,7.4585,     113P    130
-4.41437309142494D-15,4.99999999999999,7.4585,29.,5.,7.4585,         113P    131
-2.19392704217463D-15,2.54149999999999,7.4585,29.,2.5415,7.4585,     113P    132
-2.22044604925031D-15,2.54149999999999,5.,29.,2.5415,5.,             113P    133
-2.246965056326D-15,2.54149999999999,2.5415,29.,2.5415,2.5415,       113P    134
-4.46741110557632D-15,4.99999999999999,2.5415,29.,5.,2.5415,         113P    135
-6.68785715482663D-15,7.45849999999999,2.5415,29.,7.4585,2.5415,     113P    136
-6.66133814775094D-15,7.45849999999999,5.,29.,7.4585,5.,             113P    137
-5.89790522676429,5.89790522676429,-3.14159265358979,                113P    138
3.14159265358979;                                                    113P    139
128,1,4,1,2,0,0,0,0,0,0.,0.,3.,3.,-3.14159265358979,                 115P    140
-3.14159265358979,-3.14159265358979,-1.5707963267949,                115P    141
-1.5707963267949,0.,0.,0.,1.,1.,0.707106781186548,                   115P    142
0.707106781186548,1.,1.,0.707106781186548,0.707106781186548,1.,      115P    143
1.,22.5,9.,0.,22.5,9.,12.,26.5,9.,0.,26.5,9.,12.,26.5,13.,0.,        115P    144
26.5,13.,12.,26.5,17.,0.,26.5,17.,12.,22.5,17.,0.,22.5,17.,12.,      115P    145
0.,3.,-3.14159265358979,0.;                                          115P    146
128,1,1,1,1,0,0,1,0,0,-12.001,-12.001,0.00100000000000122,           117P    147
0.00100000000000122,-16.001,-16.001,0.001,0.001,1.,1.,1.,1.,         117P    148
6.499,9.,-0.001,6.499,9.,12.001,22.501,9.,-0.00099999999999989,      117P    149
22.501,9.,12.001,-12.001,0.00100000000000122,-16.001,0.001;          117P    150
128,1,4,1,2,0,0,0,0,0,0.,0.,3.,3.,-3.14159265358979,                 119P    151
-3.14159265358979,-3.14159265358979,-1.5707963267949,                119P    152
-1.5707963267949,8.32667268468867D-16,8.32667268468867D-16,          119P    153
8.32667268468867D-16,1.,1.,0.707106781186547,0.707106781186547,      119P    154
1.,1.,0.707106781186547,0.707106781186547,1.,1.,6.5,17.,0.,6.5,      119P    155
17.,12.,2.49999999999999,17.,0.,2.49999999999999,17.,12.,2.5,        119P    156
13.,0.,2.5,13.,12.,2.49999999999999,8.99999999999999,0.,             119P    157
2.49999999999999,8.99999999999999,12.,6.5,8.99999999999999,0.,       119P    158
6.5,8.99999999999999,12.,0.,3.,-3.14159265358979,                    119P    159
8.32667268468867D-16;                                                119P    160
128,1,1,1,1,0,0,1,0,0,-0.001,-0.001,12.001,12.001,-0.001,-0.001,     121P    161
16.001,16.001,1.,1.,1.,1.,6.499,17.,12.001,6.499,17.,-0.001,         121P    162
22.501,17.,12.001,22.501,17.,-0.001,-0.001,12.001,-0.001,16.001;     121P    163
128,1,1,1,1,0,0,1,0,0,-0.001,-0.001,12.001,12.001,-0.001,-0.001,     123P    164
20.001,20.001,1.,1.,1.,1.,0.,-0.001,-0.001,0.,-0.001,12.001,0.,      123P    165
20.001,-0.001,0.,20.001,12.001,-0.001,12.001,-0.001,20.001;          123P    166
128,1,1,1,1,0,0,1,0,0,-0.001,-0.001,12.001,12.001,-0.001,-0.001,     125P    167
29.001,29.001,1.,1.,1.,1.,-0.00100000000000444,20.,-0.001,           125P    168
-0.00100000000000444,20.,12.001,29.001,20.,-0.001,29.001,20.,        125P    169
12.001,-0.001,12.001,-0.001,29.001;                                  125P    170
128,1,1,1,1,0,0,1,0,0,-12.001,-12.001,0.00100000000000122,           127P    171
0.00100000000000122,-20.001,-20.001,0.001,0.001,1.,1.,1.,1.,29.,     127P    172
-0.00100000000000211,12.001,29.,-0.00100000000000211,-0.001,29.,     127P    173
20.001,12.001,29.,20.001,-0.00099999999999989,-12.001,               127P    174
0.00100000000000122,-20.001,0.001;                                   127P    175
128,1,1,1,1,0,0,1,0,0,-12.001,-12.001,0.00100000000000122,           129P    176
0.00100000000000122,-29.001,-29.001,0.001,0.001,1.,1.,1.,1.,         129P    177
-0.00100000000000211,0.,12.001,-0.00100000000000211,0.,-0.001,       129P    178
29.001,0.,12.001,29.001,0.,-0.00099999999999989,-12.001,             129P    179
0.00100000000000122,-29.001,0.001;                                   129P    180
128,1,1,1,1,0,0,1,0,0,-14.501,-14.501,14.501,14.501,-10.001,         131P    181
-10.001,10.001,10.001,1.,1.,1.,1.,29.001,-0.00099999999999878,       131P    182
0.,-0.00100000000000211,-0.00099999999999878,0.,29.001,20.001,       131P    183
0.,-0.00100000000000211,20.001,0.,-14.501,14.501,-10.001,10.001;     131P    184
128,1,1,1,1,0,0,1,0,0,-14.501,-14.501,14.501,14.501,-10.001,         133P    185
-10.001,10.001,10.001,1.,1.,1.,1.,-0.00100000000000211,              133P    186
-0.00099999999999878,12.,29.001,-0.00099999999999878,12.,            133P    187
-0.00100000000000211,20.001,12.,29.001,20.001,12.,-14.501,           133P    188
14.501,-10.001,10.001;                                               133P    189
502,19,-1.128653D-15,2.54149999999999,5.,-6.66133814775094D-15,      135P    190
7.45849999999999,5.,29.,7.4585,5.,22.5,17.,12.,22.5,9.,12.,22.5,     135P    191
17.,0.,22.5,9.,0.,6.5,8.99999999999999,12.,6.5,8.99999999999999,     135P    192
0.,6.49999999999999,17.,12.,6.49999999999999,17.,0.,0.,0.,12.,       135P    193
-4.440892D-15,20.,12.,-4.440892D-15,20.,0.,0.,0.,0.,29.,20.,12.,     135P    194
29.,20.,0.,29.,0.,12.,29.,0.,0.;                                     135P    195
504,28,57,135,1,135,2,59,135,2,135,1,61,135,2,135,3,63,135,3,        137P    196
135,3,65,135,4,135,5,67,135,6,135,4,69,135,7,135,6,71,135,7,135,     137P    197
5,73,135,5,135,8,75,135,9,135,7,77,135,9,135,8,79,135,8,135,10,      137P    198
81,135,11,135,9,83,135,11,135,10,85,135,10,135,4,87,135,6,135,       137P    199
11,89,135,12,135,13,91,135,14,135,13,93,135,14,135,15,95,135,15,     137P    200
135,12,97,135,13,135,16,99,135,17,135,16,101,135,17,135,14,103,      137P    201
135,16,135,18,105,135,19,135,18,107,135,19,135,17,109,135,18,        137P    202
135,12,111,135,15,135,19;                                            137P    203
406,1,7HBryła1;                                                     139P    204
314,74.9019607843137,74.9019607843137,74.9019607843137,;             141P    205
314,84.7058823529412,83.921568627451,83.921568627451,;               143P    206
S      1G      3D    144P    206                                        T      1
