                                                                        S      1
,,,6H210640,22HAutodesk Inventor 2021,7Hunknown,32,38,7,99,15,,1.,2,2HMMG      1
,1,0.08,15H20220920.130955,0.01,10000.,9HKrajewski,,11,0,15H20181026.000G      2
000;                                                                    G      3
     186       1                                                00000000D      1
     186            -103       1       0                               0D      2
     514       2                                                00010000D      3
     514                       1       1                               0D      4
     510       3                                                00010000D      5
     510            -103       1       1                               0D      6
     510       4                                                00010000D      7
     510            -103       1       1                               0D      8
     510       5                                                00010000D      9
     510            -103       1       1                               0D     10
     510       6                                                00010000D     11
     510            -103       1       1                               0D     12
     510       7                                                00010000D     13
     510            -103       1       1                               0D     14
     510       8                                                00010000D     15
     510            -103       1       1                               0D     16
     510       9                                                00010000D     17
     510            -103       1       1                               0D     18
     510      10                                                00010000D     19
     510            -103       1       1                               0D     20
     508      11                                                00010000D     21
     508                       1       1                               0D     22
     508      12                                                00010000D     23
     508                       2       1                               0D     24
     508      14                                                00010000D     25
     508                       2       1                               0D     26
     508      16                                                00010000D     27
     508                       1       1                               0D     28
     508      17                                                00010000D     29
     508                       1       1                               0D     30
     508      18                                                00010000D     31
     508                       1       1                               0D     32
     508      19                                                00010000D     33
     508                       1       1                               0D     34
     508      20                                                00010000D     35
     508                       1       1                               0D     36
     508      21                                                00010000D     37
     508                       1       1                               0D     38
     508      22                                                00010000D     39
     508                       1       1                               0D     40
     126      23                                                00010000D     41
     126       0               5       0                               0D     42
     126      28                                                00010000D     43
     126       0               7       0                               0D     44
     126      35                                                00010000D     45
     126       0               3       0                               0D     46
     126      38                                                00010000D     47
     126       0              10       0                               0D     48
     126      48                                                00010000D     49
     126       0               5       0                               0D     50
     126      53                                                00010000D     51
     126       0               7       0                               0D     52
     126      60                                                00010000D     53
     126       0               4       0                               0D     54
     126      64                                                00010000D     55
     126       0               6       0                               0D     56
     126      70                                                00010000D     57
     126       0               6       0                               0D     58
     126      76                                                00010000D     59
     126       0               6       0                               0D     60
     126      82                                                00010000D     61
     126       0               6       0                               0D     62
     126      88                                                00010000D     63
     126       0               6       0                               0D     64
     126      94                                                00010000D     65
     126       0               3       0                               0D     66
     126      97                                                00010000D     67
     126       0               2       0                               0D     68
     126      99                                                00010000D     69
     126       0               3       0                               0D     70
     126     102                                                00010000D     71
     126       0               3       0                               0D     72
     126     105                                                00010000D     73
     126       0               2       0                               0D     74
     126     107                                                00010000D     75
     126       0               3       0                               0D     76
     126     110                                                00010000D     77
     126       0               2       0                               0D     78
     126     112                                                00010000D     79
     126       0               2       0                               0D     80
     128     114                                                00010000D     81
     128       0    -103      13       0                               0D     82
     128     127                                                00010000D     83
     128       0    -103      18       0                               0D     84
     128     145                                                00010000D     85
     128       0    -103       4       0                               0D     86
     128     149                                                00010000D     87
     128       0    -103       4       0                               0D     88
     128     153                                                00010000D     89
     128       0    -103       4       0                               0D     90
     128     157                                                00010000D     91
     128       0    -103       4       0                               0D     92
     128     161                                                00010000D     93
     128       0    -103       3       0                               0D     94
     128     164                                                00010000D     95
     128       0    -103       3       0                               0D     96
     502     167                                                00010000D     97
     502                       6       1                               0D     98
     504     173                                                00010001D     99
     504                       5       1                               0D    100
     406     178                                                00000000D    101
     406                       1      15                               0D    102
     314     179                                                00000200D    103
     314                       1       0                               0D    104
186,3,1,0,0,1,101;                                                     1P      1
514,8,5,1,7,1,9,1,11,1,13,1,15,1,17,1,19,1;                            3P      2
510,81,1,1,21;                                                         5P      3
510,83,1,1,23;                                                         7P      4
510,85,1,1,25;                                                         9P      5
510,87,1,1,27;                                                        11P      6
510,89,1,1,29;                                                        13P      7
510,91,1,1,31;                                                        15P      8
510,93,2,1,33,35;                                                     17P      9
510,95,2,1,37,39;                                                     19P     10
508,5,0,99,1,0,0,0,99,2,0,0,0,99,3,1,0,0,99,4,0,0,0,99,3,0,0;         21P     11
508,9,0,99,5,0,0,0,99,6,0,0,0,99,7,1,0,0,99,8,0,0,0,99,9,0,0,0,       23P     12
99,10,0,0,0,99,11,0,0,0,99,12,0,0,0,99,7,0,0;                         23P     13
508,5,0,99,8,1,0,0,99,12,1,0,0,99,13,0,0,0,99,14,0,0,0,99,15,1,       25P     14
0;                                                                    25P     15
508,4,0,99,11,1,0,0,99,16,0,0,0,99,17,0,0,0,99,13,1,0;                27P     16
508,4,0,99,10,1,0,0,99,18,0,0,0,99,19,0,0,0,99,16,1,0;                29P     17
508,4,0,99,9,1,0,0,99,15,0,0,0,99,20,0,0,0,99,18,1,0;                 31P     18
508,2,0,99,5,1,0,0,99,6,1,0;                                          33P     19
508,2,0,99,1,1,0,0,99,2,1,0;                                          35P     20
508,4,0,99,17,1,0,0,99,19,1,0,0,99,20,1,0,0,99,14,1,0;                37P     21
508,1,0,99,4,1,0;                                                     39P     22
126,4,2,0,0,0,0,0.,0.,0.,1.5707963267949,1.5707963267949,             41P     23
3.14159265358979,3.14159265358979,3.14159265358979,1.,                41P     24
0.707106781186548,1.,0.707106781186548,1.,4.,0.,-1.621,4.,            41P     25
-1.621,-1.621,4.,-1.621,-9.9257623070893D-17,4.,-1.621,1.621,4.,      41P     26
-1.98515246141786D-16,1.621,0.,3.14159265358979,0.,0.,0.;             41P     27
126,4,2,0,0,0,0,3.14159265358979,3.14159265358979,                    43P     28
3.14159265358979,4.71238898038469,4.71238898038469,                   43P     29
6.28318530717959,6.28318530717959,6.28318530717959,1.,                43P     30
0.707106781186548,1.,0.707106781186547,1.,4.,                         43P     31
-1.98515246141786D-16,1.621,4.,1.621,1.621,4.,1.621,                  43P     32
2.97772869212679D-16,4.,1.621,-1.621,4.,3.97030492283572D-16,         43P     33
-1.621,3.14159265358979,6.28318530717959,0.,0.,0.;                    43P     34
126,1,1,0,0,1,0,-8.29144662136472,-8.29144662136472,                  45P     35
-5.82383403654053,-5.82383403654053,1.,1.,4.,0.,1.621,0.,0.,          45P     36
1.621,-8.29144662136472,-5.82383403654053,0.,0.,0.;                   45P     37
126,8,2,0,1,0,0,-3.14159265358979,-3.14159265358979,                  47P     38
-3.14159265358979,-1.5707963267949,-1.5707963267949,0.,0.,            47P     39
1.5707963267949,1.5707963267949,3.14159265358979,                     47P     40
3.14159265358979,3.14159265358979,1.,0.707106781186548,1.,            47P     41
0.707106781186548,1.,0.707106781186548,1.,0.707106781186548,1.,       47P     42
0.,-1.98515246141786D-16,1.621,0.,-1.621,1.621,0.,-1.621,             47P     43
-9.9257623070893D-17,0.,-1.621,-1.621,0.,0.,-1.621,0.,1.621,          47P     44
-1.621,0.,1.621,-9.9257623070893D-17,0.,1.621,1.621,0.,               47P     45
1.98515246141786D-16,1.621,-3.14159265358979,3.14159265358979,        47P     46
0.,0.,0.;                                                             47P     47
126,4,2,0,0,0,0,0.,0.,0.,1.5707963267949,1.5707963267949,             49P     48
3.14159265358979,3.14159265358979,3.14159265358979,1.,                49P     49
0.707106781186548,1.,0.707106781186548,1.,4.,3.5,0.,4.,3.5,3.5,       49P     50
4.,2.14313189850787D-16,3.5,4.,-3.5,3.5,4.,-3.5,                      49P     51
4.28626379701574D-16,0.,3.14159265358979,0.,0.,0.;                    49P     52
126,4,2,0,0,0,0,3.14159265358979,3.14159265358979,                    51P     53
3.14159265358979,4.71238898038469,4.71238898038469,                   51P     54
6.28318530717959,6.28318530717959,6.28318530717959,1.,                51P     55
0.707106781186548,1.,0.707106781186547,1.,4.,-3.5,                    51P     56
4.28626379701574D-16,4.,-3.5,-3.5,4.,-6.42939569552361D-16,-3.5,      51P     57
4.,3.5,-3.5,4.,3.5,-8.57252759403147D-16,3.14159265358979,            51P     58
6.28318530717959,0.,0.,0.;                                            51P     59
126,1,1,0,0,1,0,-0.176776695296637,-0.176776695296637,                53P     60
0.176776695299406,0.176776695299406,1.,1.,4.,-3.5,0.,                 53P     61
2.99999999998804,-4.50000000000371,4.34652314140749D-14,              53P     62
-0.176776695296637,0.176776695299406,0.,0.,0.;                        53P     63
126,2,2,0,0,0,0,0.0406684407195014,0.0406684407195014,                55P     64
0.0406684407195014,0.551135192123032,0.551135192123032,               55P     65
0.551135192123032,1.03553390593274,1.24999999999866,1.25,             55P     66
1.13603896932107,-4.5,-4.5,2.99999999997818,-4.5,                     55P     67
-1.86396103067531,2.9999999999835,-4.5,8.69304628281498D-14,          55P     68
0.0406684407195014,0.551135192123032,0.,0.,0.;                        55P     69
126,2,2,0,0,0,0,0.0406684407195014,0.0406684407195014,                57P     70
0.0406684407195014,1.06160194353057,1.06160194353057,                 57P     71
1.06160194353057,1.03553390593274,1.46446609406627,                   57P     72
1.03553390593472,1.13603896932107,4.5,-4.5,4.31801948463451,          57P     73
-2.20840012943313D-11,-4.5,1.13603896932107,-4.5,-4.5,                57P     74
0.0406684407195014,1.06160194353057,0.,0.,0.;                         57P     75
126,2,2,0,0,0,0,0.0406684407195014,0.0406684407195014,                59P     76
0.0406684407195014,1.06160194353057,1.06160194353057,                 59P     77
1.06160194353057,1.03553390593274,1.46446609406627,                   59P     78
1.03553390593472,1.13603896932107,4.5,4.5,4.31801948463452,4.5,       59P     79
-2.20806706252574D-11,1.13603896932107,4.5,-4.5,                      59P     80
0.0406684407195014,1.06160194353057,0.,0.,0.;                         59P     81
126,2,2,0,0,0,0,0.0406684407195014,0.0406684407195014,                61P     82
0.0406684407195014,1.06160194353057,1.06160194353057,                 61P     83
1.06160194353057,1.03553390593274,1.46446609406627,                   61P     84
1.03553390593472,1.13603896932107,-4.5,4.5,4.31801948463452,          61P     85
2.20751195101343D-11,4.5,1.13603896932107,4.5,4.5,                    61P     86
0.0406684407195014,1.06160194353057,0.,0.,0.;                         61P     87
126,2,2,0,0,0,0,0.551135192123032,0.551135192123032,                  63P     88
0.551135192123032,1.06160194353057,1.06160194353057,                  63P     89
1.06160194353057,1.25,1.25000000000134,1.03553390593472,              63P     90
2.9999999999835,-4.5,8.69304628281498D-14,2.99999999998882,-4.5,      63P     91
1.86396103068612,1.13603896932107,-4.5,4.5,0.551135192123032,         63P     92
1.06160194353057,0.,0.,0.;                                            63P     93
126,1,1,0,0,1,0,0.,0.,0.113603896932107,0.113603896932107,1.,1.,      65P     94
0.,-4.5,4.5,1.13603896932107,-4.5,4.5,0.,0.113603896932107,0.,        65P     95
0.,0.;                                                                65P     96
126,1,1,0,0,1,0,0.,0.,0.9,0.9,1.,1.,0.,-4.5,-4.5,0.,-4.5,4.5,0.,      67P     97
0.9,0.,0.,0.;                                                         67P     98
126,1,1,0,0,1,0,0.,0.,0.113603896932107,0.113603896932107,1.,1.,      69P     99
0.,-4.5,-4.5,1.13603896932107,-4.5,-4.5,0.,0.113603896932107,0.,      69P    100
0.,0.;                                                                69P    101
126,1,1,0,0,1,0,0.,0.,0.113603896932107,0.113603896932107,1.,1.,      71P    102
0.,4.5,4.5,1.13603896932107,4.5,4.5,0.,0.113603896932107,0.,0.,       71P    103
0.;                                                                   71P    104
126,1,1,0,0,1,0,0.,0.,0.9,0.9,1.,1.,0.,-4.5,4.5,0.,4.5,4.5,0.,        73P    105
0.9,0.,0.,0.;                                                         73P    106
126,1,1,0,0,1,0,0.,0.,0.113603896932107,0.113603896932107,1.,1.,      75P    107
0.,4.5,-4.5,1.13603896932107,4.5,-4.5,0.,0.113603896932107,0.,        75P    108
0.,0.;                                                                75P    109
126,1,1,0,0,1,0,0.,0.,0.9,0.9,1.,1.,0.,4.5,4.5,0.,4.5,-4.5,0.,        77P    110
0.9,0.,0.,0.;                                                         77P    111
126,1,1,0,0,1,0,0.,0.,0.9,0.9,1.,1.,0.,4.5,-4.5,0.,-4.5,-4.5,0.,      79P    112
0.9,0.,0.,0.;                                                         79P    113
128,1,8,1,2,0,1,0,0,1,-8.29144662136472,-8.29144662136472,            81P    114
-5.82383403654053,-5.82383403654053,-3.14159265358979,                81P    115
-3.14159265358979,-3.14159265358979,-1.5707963267949,                 81P    116
-1.5707963267949,0.,0.,1.5707963267949,1.5707963267949,               81P    117
3.14159265358979,3.14159265358979,3.14159265358979,1.,1.,             81P    118
0.707106781186548,0.707106781186548,1.,1.,0.707106781186548,          81P    119
0.707106781186548,1.,1.,0.707106781186548,0.707106781186548,1.,       81P    120
1.,0.707106781186548,0.707106781186548,1.,1.,0.,0.,1.621,4.,0.,       81P    121
1.621,0.,-1.621,1.621,4.,-1.621,1.621,0.,-1.621,0.,4.,-1.621,0.,      81P    122
0.,-1.621,-1.621,4.,-1.621,-1.621,0.,0.,-1.621,4.,0.,-1.621,0.,       81P    123
1.621,-1.621,4.,1.621,-1.621,0.,1.621,0.,4.,1.621,0.,0.,1.621,        81P    124
1.621,4.,1.621,1.621,0.,0.,1.621,4.,0.,1.621,-8.29144662136472,       81P    125
-5.82383403654053,-3.14159265358979,3.14159265358979;                 81P    126
128,1,8,1,2,0,1,0,0,1,-0.176776695296637,-0.176776695296637,          83P    127
0.835786437626906,0.835786437626906,-3.14159265358979,                83P    128
-3.14159265358979,-3.14159265358979,-1.5707963267949,                 83P    129
-1.5707963267949,0.,0.,1.5707963267949,1.5707963267949,               83P    130
3.14159265358979,3.14159265358979,3.14159265358979,1.,1.,             83P    131
0.707106781186548,0.707106781186548,1.,1.,0.707106781186548,          83P    132
0.707106781186548,1.,1.,0.707106781186548,0.707106781186548,1.,       83P    133
1.,0.707106781186548,0.707106781186548,1.,1.,1.13603896932107,        83P    134
-6.36396103067893,0.,4.,-3.5,0.,1.13603896932107,                     83P    135
-6.36396103067893,6.36396103067893,4.,-3.5,3.5,1.13603896932107,      83P    136
0.,6.36396103067893,4.,0.,3.5,1.13603896932107,6.36396103067893,      83P    137
6.36396103067893,4.,3.5,3.5,1.13603896932107,6.36396103067893,        83P    138
0.,4.,3.5,0.,1.13603896932107,6.36396103067893,                       83P    139
-6.36396103067893,4.,3.5,-3.5,1.13603896932107,0.,                    83P    140
-6.36396103067893,4.,0.,-3.5,1.13603896932107,-6.36396103067893,      83P    141
-6.36396103067893,4.,-3.5,-3.5,1.13603896932107,                      83P    142
-6.36396103067893,0.,4.,-3.5,0.,-0.176776695296637,                   83P    143
0.835786437626906,-3.14159265358979,3.14159265358979;                 83P    144
128,1,1,1,1,0,0,1,0,0,-0.901,-0.901,0.001,0.001,-0.001,-0.001,        85P    145
0.300999999998882,0.300999999998882,1.,1.,1.,1.,-0.01,-4.5,4.51,      85P    146
-0.01,-4.5,-4.51,3.00999999998882,-4.5,4.51,3.00999999998882,         85P    147
-4.5,-4.51,-0.901,0.001,-0.001,0.300999999998882;                     85P    148
128,1,1,1,1,0,0,1,0,0,-0.001,-0.001,0.432801948463452,                87P    149
0.432801948463452,-0.001,-0.001,0.901,0.901,1.,1.,1.,1.,-0.01,        87P    150
-4.51,4.5,4.32801948463452,-4.51,4.5,-0.01,4.51,4.5,                  87P    151
4.32801948463452,4.51,4.5,-0.001,0.432801948463452,-0.001,0.901;      87P    152
128,1,1,1,1,0,0,1,0,0,-0.901,-0.901,0.001,0.001,-0.001,-0.001,        89P    153
0.432801948463452,0.432801948463452,1.,1.,1.,1.,-0.01,4.5,-4.51,      89P    154
-0.01,4.5,4.51,4.32801948463452,4.5,-4.51,4.32801948463452,4.5,       89P    155
4.51,-0.901,0.001,-0.001,0.432801948463452;                           89P    156
128,1,1,1,1,0,0,1,0,0,-0.432801948463451,-0.432801948463451,          91P    157
0.001,0.001,-0.901,-0.901,0.001,0.001,1.,1.,1.,1.,                    91P    158
4.32801948463451,-4.51,-4.5,-0.01,-4.51,-4.5,4.32801948463451,        91P    159
4.51,-4.5,-0.01,4.51,-4.5,-0.432801948463451,0.001,-0.901,0.001;      91P    160
128,1,1,1,1,0,0,1,0,0,-0.351,-0.351,0.351,0.351,-0.351,-0.351,        93P    161
0.351,0.351,1.,1.,1.,1.,4.,-3.51,3.51,4.,-3.51,-3.51,4.,3.51,         93P    162
3.51,4.,3.51,-3.51,-0.351,0.351,-0.351,0.351;                         93P    163
128,1,1,1,1,0,0,1,0,0,-0.451,-0.451,0.451,0.451,-0.451,-0.451,        95P    164
0.451,0.451,1.,1.,1.,1.,0.,-4.51,-4.51,0.,-4.51,4.51,0.,4.51,         95P    165
-4.51,0.,4.51,4.51,-0.451,0.451,-0.451,0.451;                         95P    166
502,14,4.,0.,-1.621,4.,0.,1.621,0.,-1.98515246141786D-16,1.621,       97P    167
4.,3.5,0.,4.,-3.5,0.,2.99999999998804,-4.50000000000371,              97P    168
4.34652314140749D-14,1.13603896932107,-4.5,-4.5,                      97P    169
1.13603896932107,4.5,-4.5,1.13603896932107,4.5,4.5,                   97P    170
1.13603896932107,-4.5,4.5,0.,-4.5,4.5,0.,-4.5,-4.5,0.,4.5,4.5,        97P    171
0.,4.5,-4.5;                                                          97P    172
504,20,41,97,1,97,2,43,97,2,97,1,45,97,2,97,3,47,97,3,97,3,49,        99P    173
97,4,97,5,51,97,5,97,4,53,97,5,97,6,55,97,7,97,6,57,97,8,97,7,        99P    174
59,97,9,97,8,61,97,10,97,9,63,97,6,97,10,65,97,11,97,10,67,97,        99P    175
12,97,11,69,97,12,97,7,71,97,13,97,9,73,97,11,97,13,75,97,14,97,      99P    176
8,77,97,13,97,14,79,97,14,97,12;                                      99P    177
406,1,6HSolid1;                                                      101P    178
314,50.1960784313725,50.1960784313725,50.1960784313725,;             103P    179
S      1G      3D    104P    179                                        T      1
