                                                                        S      1
,,,6H210600,22HAutodesk Inventor 2021,7Hunknown,32,38,7,99,15,,1.,2,2HMMG      1
,1,0.08,15H20220920.133511,0.01,10000.,13Haluteckkpl_kk,,11,0,15H2014010G      2
3.000000;                                                               G      3
     186       1                                                00000000D      1
     186            -103       1       0                               0D      2
     514       2                                                00010000D      3
     514                       1       1                               0D      4
     510       3                                                00010000D      5
     510            -103       1       1                               0D      6
     510       4                                                00010000D      7
     510            -103       1       1                               0D      8
     510       5                                                00010000D      9
     510            -103       1       1                               0D     10
     510       6                                                00010000D     11
     510            -103       1       1                               0D     12
     510       7                                                00010000D     13
     510            -103       1       1                               0D     14
     510       8                                                00010000D     15
     510            -103       1       1                               0D     16
     510       9                                                00010000D     17
     510            -103       1       1                               0D     18
     510      10                                                00010000D     19
     510            -103       1       1                               0D     20
     508      11                                                00010000D     21
     508                       1       1                               0D     22
     508      12                                                00010000D     23
     508                       2       1                               0D     24
     508      14                                                00010000D     25
     508                       2       1                               0D     26
     508      16                                                00010000D     27
     508                       1       1                               0D     28
     508      17                                                00010000D     29
     508                       1       1                               0D     30
     508      18                                                00010000D     31
     508                       1       1                               0D     32
     508      19                                                00010000D     33
     508                       1       1                               0D     34
     508      20                                                00010000D     35
     508                       1       1                               0D     36
     508      21                                                00010000D     37
     508                       1       1                               0D     38
     508      22                                                00010000D     39
     508                       1       1                               0D     40
     126      23                                                00010000D     41
     126       0               6       0                               0D     42
     126      29                                                00010000D     43
     126       0               7       0                               0D     44
     126      36                                                00010000D     45
     126       0               3       0                               0D     46
     126      39                                                00010000D     47
     126       0              10       0                               0D     48
     126      49                                                00010000D     49
     126       0               5       0                               0D     50
     126      54                                                00010000D     51
     126       0               7       0                               0D     52
     126      61                                                00010000D     53
     126       0               4       0                               0D     54
     126      65                                                00010000D     55
     126       0               6       0                               0D     56
     126      71                                                00010000D     57
     126       0               6       0                               0D     58
     126      77                                                00010000D     59
     126       0               6       0                               0D     60
     126      83                                                00010000D     61
     126       0               6       0                               0D     62
     126      89                                                00010000D     63
     126       0               6       0                               0D     64
     126      95                                                00010000D     65
     126       0               3       0                               0D     66
     126      98                                                00010000D     67
     126       0               2       0                               0D     68
     126     100                                                00010000D     69
     126       0               3       0                               0D     70
     126     103                                                00010000D     71
     126       0               3       0                               0D     72
     126     106                                                00010000D     73
     126       0               2       0                               0D     74
     126     108                                                00010000D     75
     126       0               3       0                               0D     76
     126     111                                                00010000D     77
     126       0               2       0                               0D     78
     126     113                                                00010000D     79
     126       0               2       0                               0D     80
     128     115                                                00010000D     81
     128       0    -103      14       0                               0D     82
     128     129                                                00010000D     83
     128       0    -103      18       0                               0D     84
     128     147                                                00010000D     85
     128       0    -103       5       0                               0D     86
     128     152                                                00010000D     87
     128       0    -103       4       0                               0D     88
     128     156                                                00010000D     89
     128       0    -103       5       0                               0D     90
     128     161                                                00010000D     91
     128       0    -103       5       0                               0D     92
     128     166                                                00010000D     93
     128       0    -103       3       0                               0D     94
     128     169                                                00010000D     95
     128       0    -103       3       0                               0D     96
     502     172                                                00010000D     97
     502                       6       1                               0D     98
     504     178                                                00010001D     99
     504                       5       1                               0D    100
     406     183                                                00000000D    101
     406                       1      15                               0D    102
     314     184                                                00000200D    103
     314                       1       0                               0D    104
186,3,1,0,0,1,101;                                                     1P      1
514,8,5,1,7,1,9,1,11,1,13,1,15,1,17,1,19,1;                            3P      2
510,81,1,1,21;                                                         5P      3
510,83,1,1,23;                                                         7P      4
510,85,1,1,25;                                                         9P      5
510,87,1,1,27;                                                        11P      6
510,89,1,1,29;                                                        13P      7
510,91,1,1,31;                                                        15P      8
510,93,2,1,33,35;                                                     17P      9
510,95,2,1,37,39;                                                     19P     10
508,5,0,99,1,0,0,0,99,2,0,0,0,99,3,1,0,0,99,4,0,0,0,99,3,0,0;         21P     11
508,9,0,99,5,0,0,0,99,6,0,0,0,99,7,1,0,0,99,8,0,0,0,99,9,0,0,0,       23P     12
99,10,0,0,0,99,11,0,0,0,99,12,0,0,0,99,7,0,0;                         23P     13
508,5,0,99,8,1,0,0,99,12,1,0,0,99,13,0,0,0,99,14,0,0,0,99,15,1,       25P     14
0;                                                                    25P     15
508,4,0,99,11,1,0,0,99,16,0,0,0,99,17,0,0,0,99,13,1,0;                27P     16
508,4,0,99,10,1,0,0,99,18,0,0,0,99,19,0,0,0,99,16,1,0;                29P     17
508,4,0,99,9,1,0,0,99,15,0,0,0,99,20,0,0,0,99,18,1,0;                 31P     18
508,2,0,99,5,1,0,0,99,6,1,0;                                          33P     19
508,2,0,99,1,1,0,0,99,2,1,0;                                          35P     20
508,4,0,99,17,1,0,0,99,19,1,0,0,99,20,1,0,0,99,14,1,0;                37P     21
508,1,0,99,4,1,0;                                                     39P     22
126,4,2,0,0,0,0,0.,0.,0.,1.5707963267949,1.5707963267949,             41P     23
3.14159265358979,3.14159265358979,3.14159265358979,1.,                41P     24
0.707106781186548,1.,0.707106781186548,1.,6.,0.,-2.4585,6.,           41P     25
-2.4585,-2.4585,6.,-2.4585,-1.50539707785188D-16,6.,-2.4585,          41P     26
2.4585,6.,-3.01079415570377D-16,2.4585,0.,3.14159265358979,0.,        41P     27
0.,0.;                                                                41P     28
126,4,2,0,0,0,0,3.14159265358979,3.14159265358979,                    43P     29
3.14159265358979,4.71238898038469,4.71238898038469,                   43P     30
6.28318530717959,6.28318530717959,6.28318530717959,1.,                43P     31
0.707106781186548,1.,0.707106781186548,1.,6.,                         43P     32
-3.01079415570377D-16,2.4585,6.,2.4585,2.4585,6.,2.4585,              43P     33
4.51619123355565D-16,6.,2.4585,-2.4585,6.,6.02158831140754D-16,       43P     34
-2.4585,3.14159265358979,6.28318530717959,0.,0.,0.;                   43P     35
126,1,1,0,0,1,0,-7.89232388760473,-7.89232388760473,                  45P     36
-5.45181137997813,-5.45181137997813,1.,1.,6.,0.,2.4585,0.,0.,         45P     37
2.4585,-7.89232388760473,-5.45181137997813,0.,0.,0.;                  45P     38
126,8,2,0,1,0,0,-3.14159265358979,-3.14159265358979,                  47P     39
-3.14159265358979,-1.5707963267949,-1.5707963267949,0.,0.,            47P     40
1.5707963267949,1.5707963267949,3.14159265358979,                     47P     41
3.14159265358979,3.14159265358979,1.,0.707106781186548,1.,            47P     42
0.707106781186548,1.,0.707106781186548,1.,0.707106781186548,1.,       47P     43
0.,-3.01079415570377D-16,2.4585,0.,-2.4585,2.4585,0.,-2.4585,         47P     44
-1.50539707785188D-16,0.,-2.4585,-2.4585,0.,0.,-2.4585,0.,            47P     45
2.4585,-2.4585,0.,2.4585,-1.50539707785188D-16,0.,2.4585,2.4585,      47P     46
0.,3.01079415570377D-16,2.4585,-3.14159265358979,                     47P     47
3.14159265358979,0.,0.,0.;                                            47P     48
126,4,2,0,0,0,0,0.,0.,0.,1.5707963267949,1.5707963267949,             49P     49
3.14159265358979,3.14159265358979,3.14159265358979,1.,                49P     50
0.707106781186548,1.,0.707106781186548,1.,6.,4.8,0.,6.,4.8,4.8,       49P     51
6.,2.93915231795365D-16,4.8,6.,-4.8,4.8,6.,-4.8,                      49P     52
5.87830463590729D-16,0.,3.14159265358979,0.,0.,0.;                    49P     53
126,4,2,0,0,0,0,3.14159265358979,3.14159265358979,                    51P     54
3.14159265358979,4.71238898038469,4.71238898038469,                   51P     55
6.28318530717959,6.28318530717959,6.28318530717959,1.,                51P     56
0.707106781186548,1.,0.707106781186548,1.,6.,-4.8,                    51P     57
5.87830463590729D-16,6.,-4.8,-4.8,6.,-8.81745695386094D-16,-4.8,      51P     58
6.,4.8,-4.8,6.,4.8,-1.17566092718146D-15,3.14159265358979,            51P     59
6.28318530717959,0.,0.,0.;                                            51P     60
126,1,1,0,0,1,0,-0.481124201632084,-0.481124201632084,                53P     61
-0.15065505303405,-0.15065505303405,1.,1.,6.,-4.8,0.,                 53P     62
4.29999999998242,-6.50000000000566,1.76325620770967D-12,              53P     63
-0.481124201632084,-0.15065505303405,0.,0.,0.;                        53P     64
126,2,2,0,0,0,0,0.0587433032615019,0.0587433032615019,                55P     65
0.0587433032615019,0.796084166400399,0.796084166400399,               55P     66
0.796084166400399,1.03553390593274,1.2499999999988,1.25,              55P     67
1.60761184457488,-6.5,-6.5,4.29999999996988,-6.5,                     55P     68
-2.69238815541789,4.29999999997616,-6.5,3.52651241541935D-12,         55P     69
0.0587433032615019,0.796084166400399,0.,0.,0.;                        55P     70
126,2,2,0,0,0,0,0.0587433032615019,0.0587433032615019,                57P     71
0.0587433032615019,1.53342502954415,1.53342502954415,                 57P     72
1.53342502954415,1.03553390593274,1.46446609406627,                   57P     73
1.03553390593472,1.60761184457488,6.5,-6.5,6.20380592224986,          57P     74
-3.18878257132837D-11,-6.5,1.60761184457488,-6.5,-6.5,                57P     75
0.0587433032615019,1.53342502954415,0.,0.,0.;                         57P     76
126,2,2,0,0,0,0,0.0587433032615019,0.0587433032615019,                59P     77
0.0587433032615019,1.53342502954415,1.53342502954415,                 59P     78
1.53342502954415,1.03553390593274,1.46446609406627,                   59P     79
1.03553390593472,1.60761184457488,6.5,6.5,6.20380592224986,6.5,       59P     80
-3.18911563823576D-11,1.60761184457488,6.5,-6.5,                      59P     81
0.0587433032615019,1.53342502954415,0.,0.,0.;                         59P     82
126,2,2,0,0,0,0,0.0587433032615019,0.0587433032615019,                61P     83
0.0587433032615019,1.53342502954415,1.53342502954415,                 61P     84
1.53342502954415,1.03553390593274,1.46446609406627,                   61P     85
1.03553390593472,1.60761184457488,-6.5,6.5,6.20380592224986,          61P     86
3.18922666053822D-11,6.5,1.60761184457488,6.5,6.5,                    61P     87
0.0587433032615019,1.53342502954415,0.,0.,0.;                         61P     88
126,2,2,0,0,0,0,0.796084166400399,0.796084166400399,                  63P     89
0.796084166400399,1.53342502954415,1.53342502954415,                  63P     90
1.53342502954415,1.25,1.2500000000012,1.03553390593472,               63P     91
4.29999999997616,-6.5,3.52651241541935D-12,4.29999999998244,          63P     92
-6.5,2.6923881554375,1.60761184457488,-6.5,6.5,                       63P     93
0.796084166400399,1.53342502954415,0.,0.,0.;                          63P     94
126,1,1,0,0,1,0,0.,0.,0.160761184457488,0.160761184457488,1.,1.,      65P     95
0.,-6.5,6.5,1.60761184457488,-6.5,6.5,0.,0.160761184457488,0.,        65P     96
0.,0.;                                                                65P     97
126,1,1,0,0,1,0,0.,0.,1.3,1.3,1.,1.,0.,-6.5,-6.5,0.,-6.5,6.5,0.,      67P     98
1.3,0.,0.,0.;                                                         67P     99
126,1,1,0,0,1,0,0.,0.,0.160761184457488,0.160761184457488,1.,1.,      69P    100
0.,-6.5,-6.5,1.60761184457488,-6.5,-6.5,0.,0.160761184457488,0.,      69P    101
0.,0.;                                                                69P    102
126,1,1,0,0,1,0,0.,0.,0.160761184457488,0.160761184457488,1.,1.,      71P    103
0.,6.5,6.5,1.60761184457488,6.5,6.5,0.,0.160761184457488,0.,0.,       71P    104
0.;                                                                   71P    105
126,1,1,0,0,1,0,0.,0.,1.3,1.3,1.,1.,0.,-6.5,6.5,0.,6.5,6.5,0.,        73P    106
1.3,0.,0.,0.;                                                         73P    107
126,1,1,0,0,1,0,0.,0.,0.160761184457488,0.160761184457488,1.,1.,      75P    108
0.,6.5,-6.5,1.60761184457488,6.5,-6.5,0.,0.160761184457488,0.,        75P    109
0.,0.;                                                                75P    110
126,1,1,0,0,1,0,0.,0.,1.3,1.3,1.,1.,0.,6.5,6.5,0.,6.5,-6.5,0.,        77P    111
1.3,0.,0.,0.;                                                         77P    112
126,1,1,0,0,1,0,0.,0.,1.3,1.3,1.,1.,0.,6.5,-6.5,0.,-6.5,-6.5,0.,      79P    113
1.3,0.,0.,0.;                                                         79P    114
128,1,8,1,2,0,1,0,0,1,-7.89232388760473,-7.89232388760473,            81P    115
-5.45181137997813,-5.45181137997813,-3.14159265358979,                81P    116
-3.14159265358979,-3.14159265358979,-1.5707963267949,                 81P    117
-1.5707963267949,0.,0.,1.5707963267949,1.5707963267949,               81P    118
3.14159265358979,3.14159265358979,3.14159265358979,1.,1.,             81P    119
0.707106781186548,0.707106781186548,1.,1.,0.707106781186548,          81P    120
0.707106781186548,1.,1.,0.707106781186548,0.707106781186548,1.,       81P    121
1.,0.707106781186548,0.707106781186548,1.,1.,0.,0.,2.4585,6.,0.,      81P    122
2.4585,0.,-2.4585,2.4585,6.,-2.4585,2.4585,0.,-2.4585,0.,6.,          81P    123
-2.4585,0.,0.,-2.4585,-2.4585,6.,-2.4585,-2.4585,0.,0.,-2.4585,       81P    124
6.,0.,-2.4585,0.,2.4585,-2.4585,6.,2.4585,-2.4585,0.,2.4585,0.,       81P    125
6.,2.4585,0.,0.,2.4585,2.4585,6.,2.4585,2.4585,0.,0.,2.4585,6.,       81P    126
0.,2.4585,-7.89232388760473,-5.45181137997813,-3.14159265358979,      81P    127
3.14159265358979;                                                     81P    128
128,1,8,1,2,0,1,0,0,1,-0.481124201632084,-0.481124201632084,          83P    129
0.372728018382919,0.372728018382919,-3.14159265358979,                83P    130
-3.14159265358979,-3.14159265358979,-1.5707963267949,                 83P    131
-1.5707963267949,0.,0.,1.5707963267949,1.5707963267949,               83P    132
3.14159265358979,3.14159265358979,3.14159265358979,1.,1.,             83P    133
0.707106781186548,0.707106781186548,1.,1.,0.707106781186548,          83P    134
0.707106781186548,1.,1.,0.707106781186548,0.707106781186548,1.,       83P    135
1.,0.707106781186548,0.707106781186548,1.,1.,1.60761184457488,        83P    136
-9.19238815542512,0.,6.,-4.8,0.,1.60761184457488,                     83P    137
-9.19238815542512,9.19238815542512,6.,-4.8,4.8,1.60761184457488,      83P    138
0.,9.19238815542512,6.,0.,4.8,1.60761184457488,9.19238815542512,      83P    139
9.19238815542512,6.,4.8,4.8,1.60761184457488,9.19238815542512,        83P    140
0.,6.,4.8,0.,1.60761184457488,9.19238815542512,                       83P    141
-9.19238815542512,6.,4.8,-4.8,1.60761184457488,0.,                    83P    142
-9.19238815542512,6.,0.,-4.8,1.60761184457488,-9.19238815542512,      83P    143
-9.19238815542512,6.,-4.8,-4.8,1.60761184457488,                      83P    144
-9.19238815542512,0.,6.,-4.8,0.,-0.481124201632084,                   83P    145
0.372728018382919,-3.14159265358979,3.14159265358979;                 83P    146
128,1,1,1,1,0,0,1,0,0,-1.301,-1.301,0.00099999999999989,              85P    147
0.00099999999999989,-0.001,-0.001,0.430999999998244,                  85P    148
0.430999999998244,1.,1.,1.,1.,-0.01,-6.5,6.51,-0.01,-6.5,-6.51,       85P    149
4.30999999998244,-6.5,6.51,4.30999999998244,-6.5,-6.51,-1.301,        85P    150
0.00099999999999989,-0.001,0.430999999998244;                         85P    151
128,1,1,1,1,0,0,1,0,0,-0.001,-0.001,0.621380592224986,                87P    152
0.621380592224986,-0.001,-0.001,1.301,1.301,1.,1.,1.,1.,-0.01,        87P    153
-6.51,6.5,6.21380592224986,-6.51,6.5,-0.01,6.51,6.5,                  87P    154
6.21380592224986,6.51,6.5,-0.001,0.621380592224986,-0.001,1.301;      87P    155
128,1,1,1,1,0,0,1,0,0,-1.301,-1.301,0.00099999999999989,              89P    156
0.00099999999999989,-0.001,-0.001,0.621380592224986,                  89P    157
0.621380592224986,1.,1.,1.,1.,-0.01,6.5,-6.51,-0.01,6.5,6.51,         89P    158
6.21380592224986,6.5,-6.51,6.21380592224986,6.5,6.51,-1.301,          89P    159
0.00099999999999989,-0.001,0.621380592224986;                         89P    160
128,1,1,1,1,0,0,1,0,0,-0.621380592224986,-0.621380592224986,          91P    161
0.001,0.001,-1.301,-1.301,0.00100000000000011,                        91P    162
0.00100000000000011,1.,1.,1.,1.,6.21380592224986,-6.51,-6.5,          91P    163
-0.01,-6.51,-6.5,6.21380592224986,6.51,-6.5,-0.01,6.51,-6.5,          91P    164
-0.621380592224986,0.001,-1.301,0.00100000000000011;                  91P    165
128,1,1,1,1,0,0,1,0,0,-0.481,-0.481,0.481,0.481,-0.481,-0.481,        93P    166
0.481,0.481,1.,1.,1.,1.,6.,-4.81,4.81,6.,-4.81,-4.81,6.,4.81,         93P    167
4.81,6.,4.81,-4.81,-0.481,0.481,-0.481,0.481;                         93P    168
128,1,1,1,1,0,0,1,0,0,-0.651,-0.651,0.651,0.651,-0.651,-0.651,        95P    169
0.651,0.651,1.,1.,1.,1.,0.,-6.51,-6.51,0.,-6.51,6.51,0.,6.51,         95P    170
-6.51,0.,6.51,6.51,-0.651,0.651,-0.651,0.651;                         95P    171
502,14,6.,0.,-2.4585,6.,0.,2.4585,0.,-3.01079415570377D-16,           97P    172
2.4585,6.,4.8,0.,6.,-4.8,0.,4.29999999998242,-6.50000000000566,       97P    173
1.76325620770967D-12,1.60761184457488,-6.5,-6.5,                      97P    174
1.60761184457488,6.5,-6.5,1.60761184457488,6.5,6.5,                   97P    175
1.60761184457488,-6.5,6.5,0.,-6.5,6.5,0.,-6.5,-6.5,0.,6.5,6.5,        97P    176
0.,6.5,-6.5;                                                          97P    177
504,20,41,97,1,97,2,43,97,2,97,1,45,97,2,97,3,47,97,3,97,3,49,        99P    178
97,4,97,5,51,97,5,97,4,53,97,5,97,6,55,97,7,97,6,57,97,8,97,7,        99P    179
59,97,9,97,8,61,97,10,97,9,63,97,6,97,10,65,97,11,97,10,67,97,        99P    180
12,97,11,69,97,12,97,7,71,97,13,97,9,73,97,11,97,13,75,97,14,97,      99P    181
8,77,97,13,97,14,79,97,14,97,12;                                      99P    182
406,1,6HSolid1;                                                      101P    183
314,63.921568627451,63.921568627451,66.2745098039216,;               103P    184
S      1G      3D    104P    184                                        T      1
