ISO-10303-21;
HEADER;
/* Generated by software containing ST-Developer
 * from STEP Tools, Inc. (www.steptools.com) 
 */

FILE_DESCRIPTION(
/* description */ (''),
/* implementation_level */ '2;1');

FILE_NAME(
/* name */ 
'W:\\_BIG DATA\\STP IGS\\Akcesoria\\Elementy uzupe\X2\0142\X0\niaj\X2\0105\X0\c
e\\Wype\X2\0142\X0\nienia\\STP\\729402.stp',
/* time_stamp */ '2023-01-23T08:02:08+01:00',
/* author */ ('aluteckkpl_am'),
/* organization */ (''),
/* preprocessor_version */ 'ST-DEVELOPER v18.1',
/* originating_system */ 'Autodesk Inventor 2021',
/* authorisation */ '');

FILE_SCHEMA (('CONFIG_CONTROL_DESIGN'));
ENDSEC;

DATA;
#10=MECHANICAL_DESIGN_GEOMETRIC_PRESENTATION_REPRESENTATION('',(#13),#189);
#11=SHAPE_REPRESENTATION_RELATIONSHIP('SRR','None',#196,#12);
#12=ADVANCED_BREP_SHAPE_REPRESENTATION('',(#14),#188);
#13=STYLED_ITEM('',(#206),#14);
#14=MANIFOLD_SOLID_BREP('Bry\X2\0142\X0\a1',#107);
#15=FACE_OUTER_BOUND('',#21,.T.);
#16=FACE_OUTER_BOUND('',#22,.T.);
#17=FACE_OUTER_BOUND('',#23,.T.);
#18=FACE_OUTER_BOUND('',#24,.T.);
#19=FACE_OUTER_BOUND('',#25,.T.);
#20=FACE_OUTER_BOUND('',#26,.T.);
#21=EDGE_LOOP('',(#71,#72,#73,#74));
#22=EDGE_LOOP('',(#75,#76,#77,#78));
#23=EDGE_LOOP('',(#79,#80,#81,#82));
#24=EDGE_LOOP('',(#83,#84,#85,#86));
#25=EDGE_LOOP('',(#87,#88,#89,#90));
#26=EDGE_LOOP('',(#91,#92,#93,#94));
#27=LINE('',#163,#39);
#28=LINE('',#165,#40);
#29=LINE('',#167,#41);
#30=LINE('',#168,#42);
#31=LINE('',#171,#43);
#32=LINE('',#173,#44);
#33=LINE('',#174,#45);
#34=LINE('',#177,#46);
#35=LINE('',#179,#47);
#36=LINE('',#180,#48);
#37=LINE('',#182,#49);
#38=LINE('',#183,#50);
#39=VECTOR('',#137,100.);
#40=VECTOR('',#138,6.);
#41=VECTOR('',#139,100.);
#42=VECTOR('',#140,6.);
#43=VECTOR('',#143,100.);
#44=VECTOR('',#144,6.);
#45=VECTOR('',#145,100.);
#46=VECTOR('',#148,100.);
#47=VECTOR('',#149,6.);
#48=VECTOR('',#150,100.);
#49=VECTOR('',#153,100.);
#50=VECTOR('',#154,100.);
#51=VERTEX_POINT('',#161);
#52=VERTEX_POINT('',#162);
#53=VERTEX_POINT('',#164);
#54=VERTEX_POINT('',#166);
#55=VERTEX_POINT('',#170);
#56=VERTEX_POINT('',#172);
#57=VERTEX_POINT('',#176);
#58=VERTEX_POINT('',#178);
#59=EDGE_CURVE('',#51,#52,#27,.T.);
#60=EDGE_CURVE('',#53,#52,#28,.T.);
#61=EDGE_CURVE('',#53,#54,#29,.T.);
#62=EDGE_CURVE('',#54,#51,#30,.T.);
#63=EDGE_CURVE('',#52,#55,#31,.T.);
#64=EDGE_CURVE('',#56,#55,#32,.T.);
#65=EDGE_CURVE('',#56,#53,#33,.T.);
#66=EDGE_CURVE('',#55,#57,#34,.T.);
#67=EDGE_CURVE('',#58,#57,#35,.T.);
#68=EDGE_CURVE('',#58,#56,#36,.T.);
#69=EDGE_CURVE('',#57,#51,#37,.T.);
#70=EDGE_CURVE('',#54,#58,#38,.T.);
#71=ORIENTED_EDGE('',*,*,#59,.T.);
#72=ORIENTED_EDGE('',*,*,#60,.F.);
#73=ORIENTED_EDGE('',*,*,#61,.T.);
#74=ORIENTED_EDGE('',*,*,#62,.T.);
#75=ORIENTED_EDGE('',*,*,#63,.T.);
#76=ORIENTED_EDGE('',*,*,#64,.F.);
#77=ORIENTED_EDGE('',*,*,#65,.T.);
#78=ORIENTED_EDGE('',*,*,#60,.T.);
#79=ORIENTED_EDGE('',*,*,#66,.T.);
#80=ORIENTED_EDGE('',*,*,#67,.F.);
#81=ORIENTED_EDGE('',*,*,#68,.T.);
#82=ORIENTED_EDGE('',*,*,#64,.T.);
#83=ORIENTED_EDGE('',*,*,#69,.T.);
#84=ORIENTED_EDGE('',*,*,#62,.F.);
#85=ORIENTED_EDGE('',*,*,#70,.T.);
#86=ORIENTED_EDGE('',*,*,#67,.T.);
#87=ORIENTED_EDGE('',*,*,#70,.F.);
#88=ORIENTED_EDGE('',*,*,#61,.F.);
#89=ORIENTED_EDGE('',*,*,#65,.F.);
#90=ORIENTED_EDGE('',*,*,#68,.F.);
#91=ORIENTED_EDGE('',*,*,#59,.F.);
#92=ORIENTED_EDGE('',*,*,#69,.F.);
#93=ORIENTED_EDGE('',*,*,#66,.F.);
#94=ORIENTED_EDGE('',*,*,#63,.F.);
#95=PLANE('',#127);
#96=PLANE('',#128);
#97=PLANE('',#129);
#98=PLANE('',#130);
#99=PLANE('',#131);
#100=PLANE('',#132);
#101=ADVANCED_FACE('',(#15),#95,.T.);
#102=ADVANCED_FACE('',(#16),#96,.T.);
#103=ADVANCED_FACE('',(#17),#97,.T.);
#104=ADVANCED_FACE('',(#18),#98,.T.);
#105=ADVANCED_FACE('',(#19),#99,.F.);
#106=ADVANCED_FACE('',(#20),#100,.T.);
#107=CLOSED_SHELL('',(#101,#102,#103,#104,#105,#106));
#108=DERIVED_UNIT_ELEMENT(#110,1.);
#109=DERIVED_UNIT_ELEMENT(#191,3.);
#110=(
MASS_UNIT()
NAMED_UNIT(*)
SI_UNIT($,.GRAM.)
);
#111=DERIVED_UNIT((#108,#109));
#112=MEASURE_REPRESENTATION_ITEM('density measure',
POSITIVE_RATIO_MEASURE(1.),#111);
#113=PROPERTY_DEFINITION_REPRESENTATION(#118,#115);
#114=PROPERTY_DEFINITION_REPRESENTATION(#119,#116);
#115=REPRESENTATION('material name',(#117),#188);
#116=REPRESENTATION('density',(#112),#188);
#117=DESCRIPTIVE_REPRESENTATION_ITEM('Generic','Generic');
#118=PROPERTY_DEFINITION('material property','material name',#198);
#119=PROPERTY_DEFINITION('material property','density of part',#198);
#120=DATE_TIME_ROLE('creation_date');
#121=CC_DESIGN_DATE_AND_TIME_ASSIGNMENT(#122,#120,(#198));
#122=DATE_AND_TIME(#123,#124);
#123=CALENDAR_DATE(2016,18,5);
#124=LOCAL_TIME(8,20,18.,#125);
#125=COORDINATED_UNIVERSAL_TIME_OFFSET(0,0,.BEHIND.);
#126=AXIS2_PLACEMENT_3D('placement',#159,#133,#134);
#127=AXIS2_PLACEMENT_3D('',#160,#135,#136);
#128=AXIS2_PLACEMENT_3D('',#169,#141,#142);
#129=AXIS2_PLACEMENT_3D('',#175,#146,#147);
#130=AXIS2_PLACEMENT_3D('',#181,#151,#152);
#131=AXIS2_PLACEMENT_3D('',#184,#155,#156);
#132=AXIS2_PLACEMENT_3D('',#185,#157,#158);
#133=DIRECTION('axis',(0.,0.,1.));
#134=DIRECTION('refdir',(1.,0.,0.));
#135=DIRECTION('center_axis',(-3.5527136788005E-16,0.,-1.));
#136=DIRECTION('ref_axis',(-1.,0.,3.5527136788005E-16));
#137=DIRECTION('',(1.,0.,-3.5527136788005E-16));
#138=DIRECTION('',(0.,1.,0.));
#139=DIRECTION('',(-1.,0.,3.5527136788005E-16));
#140=DIRECTION('',(0.,1.,0.));
#141=DIRECTION('center_axis',(1.,0.,-1.85825683338866E-17));
#142=DIRECTION('ref_axis',(-1.85825683338866E-17,0.,-1.));
#143=DIRECTION('',(1.85825683338866E-17,0.,1.));
#144=DIRECTION('',(0.,1.,0.));
#145=DIRECTION('',(-1.85825683338866E-17,0.,-1.));
#146=DIRECTION('center_axis',(0.,0.,1.));
#147=DIRECTION('ref_axis',(1.,0.,0.));
#148=DIRECTION('',(-1.,0.,0.));
#149=DIRECTION('',(0.,1.,0.));
#150=DIRECTION('',(1.,0.,0.));
#151=DIRECTION('center_axis',(-1.,0.,0.));
#152=DIRECTION('ref_axis',(0.,0.,1.));
#153=DIRECTION('',(0.,0.,-1.));
#154=DIRECTION('',(0.,0.,1.));
#155=DIRECTION('center_axis',(0.,1.,0.));
#156=DIRECTION('ref_axis',(0.,0.,1.));
#157=DIRECTION('center_axis',(0.,1.,0.));
#158=DIRECTION('ref_axis',(0.,0.,1.));
#159=CARTESIAN_POINT('',(0.,0.,0.));
#160=CARTESIAN_POINT('Origin',(-100.,0.,-100.));
#161=CARTESIAN_POINT('',(-100.,6.,-100.));
#162=CARTESIAN_POINT('',(0.,6.,-100.));
#163=CARTESIAN_POINT('',(0.,6.,-100.));
#164=CARTESIAN_POINT('',(0.,0.,-100.));
#165=CARTESIAN_POINT('',(0.,0.,-100.));
#166=CARTESIAN_POINT('',(-100.,0.,-100.));
#167=CARTESIAN_POINT('',(0.,0.,-100.));
#168=CARTESIAN_POINT('',(-100.,0.,-100.));
#169=CARTESIAN_POINT('Origin',(0.,0.,-100.));
#170=CARTESIAN_POINT('',(1.85825683338866E-15,6.,0.));
#171=CARTESIAN_POINT('',(1.85825683338866E-15,6.,0.));
#172=CARTESIAN_POINT('',(1.85825683338866E-15,0.,0.));
#173=CARTESIAN_POINT('',(1.85825683338866E-15,0.,0.));
#174=CARTESIAN_POINT('',(1.85825683338866E-15,0.,0.));
#175=CARTESIAN_POINT('Origin',(1.85825683338866E-15,0.,0.));
#176=CARTESIAN_POINT('',(-100.,6.,0.));
#177=CARTESIAN_POINT('',(-100.,6.,0.));
#178=CARTESIAN_POINT('',(-100.,0.,0.));
#179=CARTESIAN_POINT('',(-100.,0.,0.));
#180=CARTESIAN_POINT('',(-100.,0.,0.));
#181=CARTESIAN_POINT('Origin',(-100.,0.,0.));
#182=CARTESIAN_POINT('',(-100.,6.,-100.));
#183=CARTESIAN_POINT('',(-100.,0.,-100.));
#184=CARTESIAN_POINT('Origin',(-50.,0.,-50.));
#185=CARTESIAN_POINT('Origin',(-50.,6.,-50.));
#186=UNCERTAINTY_MEASURE_WITH_UNIT(LENGTH_MEASURE(0.01),#190,
'DISTANCE_ACCURACY_VALUE',
'Maximum model space distance between geometric entities at asserted c
onnectivities');
#187=UNCERTAINTY_MEASURE_WITH_UNIT(LENGTH_MEASURE(0.01),#190,
'DISTANCE_ACCURACY_VALUE',
'Maximum model space distance between geometric entities at asserted c
onnectivities');
#188=(
GEOMETRIC_REPRESENTATION_CONTEXT(3)
GLOBAL_UNCERTAINTY_ASSIGNED_CONTEXT((#186))
GLOBAL_UNIT_ASSIGNED_CONTEXT((#190,#192,#193))
REPRESENTATION_CONTEXT('','3D')
);
#189=(
GEOMETRIC_REPRESENTATION_CONTEXT(3)
GLOBAL_UNCERTAINTY_ASSIGNED_CONTEXT((#187))
GLOBAL_UNIT_ASSIGNED_CONTEXT((#190,#192,#193))
REPRESENTATION_CONTEXT('','3D')
);
#190=(
LENGTH_UNIT()
NAMED_UNIT(*)
SI_UNIT(.MILLI.,.METRE.)
);
#191=(
LENGTH_UNIT()
NAMED_UNIT(*)
SI_UNIT(.CENTI.,.METRE.)
);
#192=(
NAMED_UNIT(*)
PLANE_ANGLE_UNIT()
SI_UNIT($,.RADIAN.)
);
#193=(
NAMED_UNIT(*)
SI_UNIT($,.STERADIAN.)
SOLID_ANGLE_UNIT()
);
#194=SHAPE_DEFINITION_REPRESENTATION(#195,#196);
#195=PRODUCT_DEFINITION_SHAPE('',$,#198);
#196=SHAPE_REPRESENTATION('',(#126),#188);
#197=DESIGN_CONTEXT('part definition',#202,'design');
#198=PRODUCT_DEFINITION('729402','729402',#199,#197);
#199=PRODUCT_DEFINITION_FORMATION('',$,#204);
#200=PRODUCT_RELATED_PRODUCT_CATEGORY('729402','729402',(#204));
#201=APPLICATION_PROTOCOL_DEFINITION('international standard',
'ap203_configuration_controlled_3d_design_of_mechanical_parts_and_asse
mblies_mim_lf',2004,#202);
#202=APPLICATION_CONTEXT(
'Configuration Controlled 3D Design of Mechanical Parts and Assemblies');
#203=MECHANICAL_CONTEXT('part definition',#202,'mechanical');
#204=PRODUCT('729402','729402',$,(#203));
#205=PRESENTATION_STYLE_ASSIGNMENT((#207));
#206=PRESENTATION_STYLE_ASSIGNMENT((#208));
#207=SURFACE_STYLE_USAGE(.BOTH.,#213);
#208=SURFACE_STYLE_USAGE(.BOTH.,#214);
#209=SURFACE_STYLE_RENDERING_WITH_PROPERTIES($,#221,(#211));
#210=SURFACE_STYLE_RENDERING_WITH_PROPERTIES($,#222,(#212));
#211=SURFACE_STYLE_TRANSPARENT(0.);
#212=SURFACE_STYLE_TRANSPARENT(0.);
#213=SURFACE_SIDE_STYLE('',(#215,#209));
#214=SURFACE_SIDE_STYLE('',(#216,#210));
#215=SURFACE_STYLE_FILL_AREA(#217);
#216=SURFACE_STYLE_FILL_AREA(#218);
#217=FILL_AREA_STYLE('',(#219));
#218=FILL_AREA_STYLE('',(#220));
#219=FILL_AREA_STYLE_COLOUR('',#221);
#220=FILL_AREA_STYLE_COLOUR('',#222);
#221=COLOUR_RGB('',0.749019607843137,0.749019607843137,0.749019607843137);
#222=COLOUR_RGB('',0.501960784313725,0.501960784313725,0.501960784313725);
ENDSEC;
END-ISO-10303-21;
