ISO-10303-21;
HEADER;
/* Generated by software containing ST-Developer
 * from STEP Tools, Inc. (www.steptools.com) 
 */

FILE_DESCRIPTION(
/* description */ (''),
/* implementation_level */ '2;1');

FILE_NAME(
/* name */ 
'W:\\_BIG DATA\\STP IGS\\Akcesoria\\Elementy uzupe\X2\0142\X0\niaj\X2\0105\X0\c
e\\Wype\X2\0142\X0\nienia\\STP\\729302.stp',
/* time_stamp */ '2023-01-23T08:25:09+01:00',
/* author */ ('aluteckkpl_am'),
/* organization */ (''),
/* preprocessor_version */ 'ST-DEVELOPER v18.1',
/* originating_system */ 'Autodesk Inventor 2021',
/* authorisation */ '');

FILE_SCHEMA (('CONFIG_CONTROL_DESIGN'));
ENDSEC;

DATA;
#10=MECHANICAL_DESIGN_GEOMETRIC_PRESENTATION_REPRESENTATION('',(#13,#14,
#15,#16,#17,#18,#19,#20),#470);
#11=SHAPE_REPRESENTATION_RELATIONSHIP('SRR','None',#477,#12);
#12=ADVANCED_BREP_SHAPE_REPRESENTATION('',(#21,#22,#23,#24,#25,#26,#27,
#28),#469);
#13=STYLED_ITEM('',(#487),#21);
#14=STYLED_ITEM('',(#487),#22);
#15=STYLED_ITEM('',(#487),#23);
#16=STYLED_ITEM('',(#487),#24);
#17=STYLED_ITEM('',(#487),#25);
#18=STYLED_ITEM('',(#487),#26);
#19=STYLED_ITEM('',(#487),#27);
#20=STYLED_ITEM('',(#487),#28);
#21=MANIFOLD_SOLID_BREP('Bry\X2\0142\X0\a1',#245);
#22=MANIFOLD_SOLID_BREP('Bry\X2\0142\X0\a2',#246);
#23=MANIFOLD_SOLID_BREP('Bry\X2\0142\X0\a3',#247);
#24=MANIFOLD_SOLID_BREP('Bry\X2\0142\X0\a4',#248);
#25=MANIFOLD_SOLID_BREP('Bry\X2\0142\X0\a5',#249);
#26=MANIFOLD_SOLID_BREP('Bry\X2\0142\X0\a6',#250);
#27=MANIFOLD_SOLID_BREP('Bry\X2\0142\X0\a7',#251);
#28=MANIFOLD_SOLID_BREP('Bry\X2\0142\X0\a8',#252);
#29=PLANE('',#275);
#30=PLANE('',#276);
#31=PLANE('',#280);
#32=PLANE('',#281);
#33=PLANE('',#285);
#34=PLANE('',#286);
#35=PLANE('',#290);
#36=PLANE('',#291);
#37=PLANE('',#292);
#38=PLANE('',#296);
#39=PLANE('',#297);
#40=PLANE('',#301);
#41=PLANE('',#302);
#42=PLANE('',#306);
#43=PLANE('',#307);
#44=PLANE('',#311);
#45=FACE_OUTER_BOUND('',#69,.T.);
#46=FACE_OUTER_BOUND('',#70,.T.);
#47=FACE_OUTER_BOUND('',#71,.T.);
#48=FACE_OUTER_BOUND('',#72,.T.);
#49=FACE_OUTER_BOUND('',#73,.T.);
#50=FACE_OUTER_BOUND('',#74,.T.);
#51=FACE_OUTER_BOUND('',#75,.T.);
#52=FACE_OUTER_BOUND('',#76,.T.);
#53=FACE_OUTER_BOUND('',#77,.T.);
#54=FACE_OUTER_BOUND('',#78,.T.);
#55=FACE_OUTER_BOUND('',#79,.T.);
#56=FACE_OUTER_BOUND('',#80,.T.);
#57=FACE_OUTER_BOUND('',#81,.T.);
#58=FACE_OUTER_BOUND('',#82,.T.);
#59=FACE_OUTER_BOUND('',#83,.T.);
#60=FACE_OUTER_BOUND('',#84,.T.);
#61=FACE_OUTER_BOUND('',#85,.T.);
#62=FACE_OUTER_BOUND('',#86,.T.);
#63=FACE_OUTER_BOUND('',#87,.T.);
#64=FACE_OUTER_BOUND('',#88,.T.);
#65=FACE_OUTER_BOUND('',#89,.T.);
#66=FACE_OUTER_BOUND('',#90,.T.);
#67=FACE_OUTER_BOUND('',#91,.T.);
#68=FACE_OUTER_BOUND('',#92,.T.);
#69=EDGE_LOOP('',(#165,#166,#167,#168));
#70=EDGE_LOOP('',(#169));
#71=EDGE_LOOP('',(#170));
#72=EDGE_LOOP('',(#171,#172,#173,#174));
#73=EDGE_LOOP('',(#175));
#74=EDGE_LOOP('',(#176));
#75=EDGE_LOOP('',(#177,#178,#179,#180));
#76=EDGE_LOOP('',(#181));
#77=EDGE_LOOP('',(#182));
#78=EDGE_LOOP('',(#183,#184,#185,#186));
#79=EDGE_LOOP('',(#187));
#80=EDGE_LOOP('',(#188));
#81=EDGE_LOOP('',(#189));
#82=EDGE_LOOP('',(#190,#191,#192,#193));
#83=EDGE_LOOP('',(#194));
#84=EDGE_LOOP('',(#195));
#85=EDGE_LOOP('',(#196,#197,#198,#199));
#86=EDGE_LOOP('',(#200));
#87=EDGE_LOOP('',(#201));
#88=EDGE_LOOP('',(#202,#203,#204,#205));
#89=EDGE_LOOP('',(#206));
#90=EDGE_LOOP('',(#207));
#91=EDGE_LOOP('',(#208,#209,#210,#211));
#92=EDGE_LOOP('',(#212));
#93=LINE('',#407,#101);
#94=LINE('',#415,#102);
#95=LINE('',#423,#103);
#96=LINE('',#431,#104);
#97=LINE('',#441,#105);
#98=LINE('',#449,#106);
#99=LINE('',#457,#107);
#100=LINE('',#465,#108);
#101=VECTOR('',#318,1.5);
#102=VECTOR('',#329,1.5);
#103=VECTOR('',#340,1.5);
#104=VECTOR('',#351,1.5);
#105=VECTOR('',#366,1.5);
#106=VECTOR('',#377,1.5);
#107=VECTOR('',#388,1.5);
#108=VECTOR('',#399,1.5);
#109=CIRCLE('',#273,1.5);
#110=CIRCLE('',#274,1.5);
#111=CIRCLE('',#278,1.5);
#112=CIRCLE('',#279,1.5);
#113=CIRCLE('',#283,1.5);
#114=CIRCLE('',#284,1.5);
#115=CIRCLE('',#288,1.5);
#116=CIRCLE('',#289,1.5);
#117=CIRCLE('',#293,1.5);
#118=CIRCLE('',#295,1.5);
#119=CIRCLE('',#298,1.5);
#120=CIRCLE('',#300,1.5);
#121=CIRCLE('',#303,1.5);
#122=CIRCLE('',#305,1.5);
#123=CIRCLE('',#308,1.5);
#124=CIRCLE('',#310,1.5);
#125=VERTEX_POINT('',#404);
#126=VERTEX_POINT('',#406);
#127=VERTEX_POINT('',#412);
#128=VERTEX_POINT('',#414);
#129=VERTEX_POINT('',#420);
#130=VERTEX_POINT('',#422);
#131=VERTEX_POINT('',#428);
#132=VERTEX_POINT('',#430);
#133=VERTEX_POINT('',#436);
#134=VERTEX_POINT('',#439);
#135=VERTEX_POINT('',#444);
#136=VERTEX_POINT('',#447);
#137=VERTEX_POINT('',#452);
#138=VERTEX_POINT('',#455);
#139=VERTEX_POINT('',#460);
#140=VERTEX_POINT('',#463);
#141=EDGE_CURVE('',#125,#125,#109,.T.);
#142=EDGE_CURVE('',#125,#126,#93,.T.);
#143=EDGE_CURVE('',#126,#126,#110,.T.);
#144=EDGE_CURVE('',#127,#127,#111,.T.);
#145=EDGE_CURVE('',#127,#128,#94,.T.);
#146=EDGE_CURVE('',#128,#128,#112,.T.);
#147=EDGE_CURVE('',#129,#129,#113,.T.);
#148=EDGE_CURVE('',#129,#130,#95,.T.);
#149=EDGE_CURVE('',#130,#130,#114,.T.);
#150=EDGE_CURVE('',#131,#131,#115,.T.);
#151=EDGE_CURVE('',#131,#132,#96,.T.);
#152=EDGE_CURVE('',#132,#132,#116,.T.);
#153=EDGE_CURVE('',#133,#133,#117,.T.);
#154=EDGE_CURVE('',#134,#134,#118,.T.);
#155=EDGE_CURVE('',#134,#133,#97,.T.);
#156=EDGE_CURVE('',#135,#135,#119,.T.);
#157=EDGE_CURVE('',#136,#136,#120,.T.);
#158=EDGE_CURVE('',#136,#135,#98,.T.);
#159=EDGE_CURVE('',#137,#137,#121,.T.);
#160=EDGE_CURVE('',#138,#138,#122,.T.);
#161=EDGE_CURVE('',#138,#137,#99,.T.);
#162=EDGE_CURVE('',#139,#139,#123,.T.);
#163=EDGE_CURVE('',#140,#140,#124,.T.);
#164=EDGE_CURVE('',#140,#139,#100,.T.);
#165=ORIENTED_EDGE('',*,*,#141,.F.);
#166=ORIENTED_EDGE('',*,*,#142,.T.);
#167=ORIENTED_EDGE('',*,*,#143,.T.);
#168=ORIENTED_EDGE('',*,*,#142,.F.);
#169=ORIENTED_EDGE('',*,*,#141,.T.);
#170=ORIENTED_EDGE('',*,*,#143,.F.);
#171=ORIENTED_EDGE('',*,*,#144,.F.);
#172=ORIENTED_EDGE('',*,*,#145,.T.);
#173=ORIENTED_EDGE('',*,*,#146,.T.);
#174=ORIENTED_EDGE('',*,*,#145,.F.);
#175=ORIENTED_EDGE('',*,*,#144,.T.);
#176=ORIENTED_EDGE('',*,*,#146,.F.);
#177=ORIENTED_EDGE('',*,*,#147,.F.);
#178=ORIENTED_EDGE('',*,*,#148,.T.);
#179=ORIENTED_EDGE('',*,*,#149,.T.);
#180=ORIENTED_EDGE('',*,*,#148,.F.);
#181=ORIENTED_EDGE('',*,*,#147,.T.);
#182=ORIENTED_EDGE('',*,*,#149,.F.);
#183=ORIENTED_EDGE('',*,*,#150,.F.);
#184=ORIENTED_EDGE('',*,*,#151,.T.);
#185=ORIENTED_EDGE('',*,*,#152,.T.);
#186=ORIENTED_EDGE('',*,*,#151,.F.);
#187=ORIENTED_EDGE('',*,*,#150,.T.);
#188=ORIENTED_EDGE('',*,*,#152,.F.);
#189=ORIENTED_EDGE('',*,*,#153,.T.);
#190=ORIENTED_EDGE('',*,*,#154,.F.);
#191=ORIENTED_EDGE('',*,*,#155,.T.);
#192=ORIENTED_EDGE('',*,*,#153,.F.);
#193=ORIENTED_EDGE('',*,*,#155,.F.);
#194=ORIENTED_EDGE('',*,*,#154,.T.);
#195=ORIENTED_EDGE('',*,*,#156,.T.);
#196=ORIENTED_EDGE('',*,*,#157,.F.);
#197=ORIENTED_EDGE('',*,*,#158,.T.);
#198=ORIENTED_EDGE('',*,*,#156,.F.);
#199=ORIENTED_EDGE('',*,*,#158,.F.);
#200=ORIENTED_EDGE('',*,*,#157,.T.);
#201=ORIENTED_EDGE('',*,*,#159,.T.);
#202=ORIENTED_EDGE('',*,*,#160,.F.);
#203=ORIENTED_EDGE('',*,*,#161,.T.);
#204=ORIENTED_EDGE('',*,*,#159,.F.);
#205=ORIENTED_EDGE('',*,*,#161,.F.);
#206=ORIENTED_EDGE('',*,*,#160,.T.);
#207=ORIENTED_EDGE('',*,*,#162,.T.);
#208=ORIENTED_EDGE('',*,*,#163,.F.);
#209=ORIENTED_EDGE('',*,*,#164,.T.);
#210=ORIENTED_EDGE('',*,*,#162,.F.);
#211=ORIENTED_EDGE('',*,*,#164,.F.);
#212=ORIENTED_EDGE('',*,*,#163,.T.);
#213=CYLINDRICAL_SURFACE('',#272,1.5);
#214=CYLINDRICAL_SURFACE('',#277,1.5);
#215=CYLINDRICAL_SURFACE('',#282,1.5);
#216=CYLINDRICAL_SURFACE('',#287,1.5);
#217=CYLINDRICAL_SURFACE('',#294,1.5);
#218=CYLINDRICAL_SURFACE('',#299,1.5);
#219=CYLINDRICAL_SURFACE('',#304,1.5);
#220=CYLINDRICAL_SURFACE('',#309,1.5);
#221=ADVANCED_FACE('',(#45),#213,.T.);
#222=ADVANCED_FACE('',(#46),#29,.F.);
#223=ADVANCED_FACE('',(#47),#30,.T.);
#224=ADVANCED_FACE('',(#48),#214,.T.);
#225=ADVANCED_FACE('',(#49),#31,.F.);
#226=ADVANCED_FACE('',(#50),#32,.T.);
#227=ADVANCED_FACE('',(#51),#215,.T.);
#228=ADVANCED_FACE('',(#52),#33,.F.);
#229=ADVANCED_FACE('',(#53),#34,.T.);
#230=ADVANCED_FACE('',(#54),#216,.T.);
#231=ADVANCED_FACE('',(#55),#35,.F.);
#232=ADVANCED_FACE('',(#56),#36,.T.);
#233=ADVANCED_FACE('',(#57),#37,.F.);
#234=ADVANCED_FACE('',(#58),#217,.T.);
#235=ADVANCED_FACE('',(#59),#38,.T.);
#236=ADVANCED_FACE('',(#60),#39,.F.);
#237=ADVANCED_FACE('',(#61),#218,.T.);
#238=ADVANCED_FACE('',(#62),#40,.T.);
#239=ADVANCED_FACE('',(#63),#41,.F.);
#240=ADVANCED_FACE('',(#64),#219,.T.);
#241=ADVANCED_FACE('',(#65),#42,.T.);
#242=ADVANCED_FACE('',(#66),#43,.F.);
#243=ADVANCED_FACE('',(#67),#220,.T.);
#244=ADVANCED_FACE('',(#68),#44,.T.);
#245=CLOSED_SHELL('',(#221,#222,#223));
#246=CLOSED_SHELL('',(#224,#225,#226));
#247=CLOSED_SHELL('',(#227,#228,#229));
#248=CLOSED_SHELL('',(#230,#231,#232));
#249=CLOSED_SHELL('',(#233,#234,#235));
#250=CLOSED_SHELL('',(#236,#237,#238));
#251=CLOSED_SHELL('',(#239,#240,#241));
#252=CLOSED_SHELL('',(#242,#243,#244));
#253=DERIVED_UNIT_ELEMENT(#255,1.);
#254=DERIVED_UNIT_ELEMENT(#472,3.);
#255=(
MASS_UNIT()
NAMED_UNIT(*)
SI_UNIT($,.GRAM.)
);
#256=DERIVED_UNIT((#253,#254));
#257=MEASURE_REPRESENTATION_ITEM('density measure',
POSITIVE_RATIO_MEASURE(1.),#256);
#258=PROPERTY_DEFINITION_REPRESENTATION(#263,#260);
#259=PROPERTY_DEFINITION_REPRESENTATION(#264,#261);
#260=REPRESENTATION('material name',(#262),#469);
#261=REPRESENTATION('density',(#257),#469);
#262=DESCRIPTIVE_REPRESENTATION_ITEM('Generic','Generic');
#263=PROPERTY_DEFINITION('material property','material name',#479);
#264=PROPERTY_DEFINITION('material property','density of part',#479);
#265=DATE_TIME_ROLE('creation_date');
#266=CC_DESIGN_DATE_AND_TIME_ASSIGNMENT(#267,#265,(#479));
#267=DATE_AND_TIME(#268,#269);
#268=CALENDAR_DATE(2016,18,5);
#269=LOCAL_TIME(8,48,10.,#270);
#270=COORDINATED_UNIVERSAL_TIME_OFFSET(0,0,.BEHIND.);
#271=AXIS2_PLACEMENT_3D('placement',#402,#312,#313);
#272=AXIS2_PLACEMENT_3D('',#403,#314,#315);
#273=AXIS2_PLACEMENT_3D('',#405,#316,#317);
#274=AXIS2_PLACEMENT_3D('',#408,#319,#320);
#275=AXIS2_PLACEMENT_3D('',#409,#321,#322);
#276=AXIS2_PLACEMENT_3D('',#410,#323,#324);
#277=AXIS2_PLACEMENT_3D('',#411,#325,#326);
#278=AXIS2_PLACEMENT_3D('',#413,#327,#328);
#279=AXIS2_PLACEMENT_3D('',#416,#330,#331);
#280=AXIS2_PLACEMENT_3D('',#417,#332,#333);
#281=AXIS2_PLACEMENT_3D('',#418,#334,#335);
#282=AXIS2_PLACEMENT_3D('',#419,#336,#337);
#283=AXIS2_PLACEMENT_3D('',#421,#338,#339);
#284=AXIS2_PLACEMENT_3D('',#424,#341,#342);
#285=AXIS2_PLACEMENT_3D('',#425,#343,#344);
#286=AXIS2_PLACEMENT_3D('',#426,#345,#346);
#287=AXIS2_PLACEMENT_3D('',#427,#347,#348);
#288=AXIS2_PLACEMENT_3D('',#429,#349,#350);
#289=AXIS2_PLACEMENT_3D('',#432,#352,#353);
#290=AXIS2_PLACEMENT_3D('',#433,#354,#355);
#291=AXIS2_PLACEMENT_3D('',#434,#356,#357);
#292=AXIS2_PLACEMENT_3D('',#435,#358,#359);
#293=AXIS2_PLACEMENT_3D('',#437,#360,#361);
#294=AXIS2_PLACEMENT_3D('',#438,#362,#363);
#295=AXIS2_PLACEMENT_3D('',#440,#364,#365);
#296=AXIS2_PLACEMENT_3D('',#442,#367,#368);
#297=AXIS2_PLACEMENT_3D('',#443,#369,#370);
#298=AXIS2_PLACEMENT_3D('',#445,#371,#372);
#299=AXIS2_PLACEMENT_3D('',#446,#373,#374);
#300=AXIS2_PLACEMENT_3D('',#448,#375,#376);
#301=AXIS2_PLACEMENT_3D('',#450,#378,#379);
#302=AXIS2_PLACEMENT_3D('',#451,#380,#381);
#303=AXIS2_PLACEMENT_3D('',#453,#382,#383);
#304=AXIS2_PLACEMENT_3D('',#454,#384,#385);
#305=AXIS2_PLACEMENT_3D('',#456,#386,#387);
#306=AXIS2_PLACEMENT_3D('',#458,#389,#390);
#307=AXIS2_PLACEMENT_3D('',#459,#391,#392);
#308=AXIS2_PLACEMENT_3D('',#461,#393,#394);
#309=AXIS2_PLACEMENT_3D('',#462,#395,#396);
#310=AXIS2_PLACEMENT_3D('',#464,#397,#398);
#311=AXIS2_PLACEMENT_3D('',#466,#400,#401);
#312=DIRECTION('axis',(0.,0.,1.));
#313=DIRECTION('refdir',(1.,0.,0.));
#314=DIRECTION('center_axis',(-1.,0.,0.));
#315=DIRECTION('ref_axis',(0.,-1.,0.));
#316=DIRECTION('center_axis',(-1.,0.,0.));
#317=DIRECTION('ref_axis',(0.,-1.,0.));
#318=DIRECTION('',(1.,0.,0.));
#319=DIRECTION('center_axis',(-1.,0.,0.));
#320=DIRECTION('ref_axis',(0.,-1.,0.));
#321=DIRECTION('center_axis',(1.,0.,0.));
#322=DIRECTION('ref_axis',(0.,0.,-1.));
#323=DIRECTION('center_axis',(1.,0.,0.));
#324=DIRECTION('ref_axis',(0.,0.,-1.));
#325=DIRECTION('center_axis',(-1.,0.,0.));
#326=DIRECTION('ref_axis',(0.,-1.,0.));
#327=DIRECTION('center_axis',(-1.,0.,0.));
#328=DIRECTION('ref_axis',(0.,-1.,0.));
#329=DIRECTION('',(1.,0.,0.));
#330=DIRECTION('center_axis',(-1.,0.,0.));
#331=DIRECTION('ref_axis',(0.,-1.,0.));
#332=DIRECTION('center_axis',(1.,0.,0.));
#333=DIRECTION('ref_axis',(0.,0.,-1.));
#334=DIRECTION('center_axis',(1.,0.,0.));
#335=DIRECTION('ref_axis',(0.,0.,-1.));
#336=DIRECTION('center_axis',(-1.,0.,0.));
#337=DIRECTION('ref_axis',(0.,-1.,0.));
#338=DIRECTION('center_axis',(-1.,0.,0.));
#339=DIRECTION('ref_axis',(0.,-1.,0.));
#340=DIRECTION('',(1.,0.,0.));
#341=DIRECTION('center_axis',(-1.,0.,0.));
#342=DIRECTION('ref_axis',(0.,-1.,0.));
#343=DIRECTION('center_axis',(1.,0.,0.));
#344=DIRECTION('ref_axis',(0.,0.,-1.));
#345=DIRECTION('center_axis',(1.,0.,0.));
#346=DIRECTION('ref_axis',(0.,0.,-1.));
#347=DIRECTION('center_axis',(-1.,0.,0.));
#348=DIRECTION('ref_axis',(0.,-1.,0.));
#349=DIRECTION('center_axis',(-1.,0.,0.));
#350=DIRECTION('ref_axis',(0.,-1.,0.));
#351=DIRECTION('',(1.,0.,0.));
#352=DIRECTION('center_axis',(-1.,0.,0.));
#353=DIRECTION('ref_axis',(0.,-1.,0.));
#354=DIRECTION('center_axis',(1.,0.,0.));
#355=DIRECTION('ref_axis',(0.,0.,-1.));
#356=DIRECTION('center_axis',(1.,0.,0.));
#357=DIRECTION('ref_axis',(0.,0.,-1.));
#358=DIRECTION('center_axis',(0.,0.,1.));
#359=DIRECTION('ref_axis',(1.,0.,0.));
#360=DIRECTION('center_axis',(0.,0.,-1.));
#361=DIRECTION('ref_axis',(-1.,0.,0.));
#362=DIRECTION('center_axis',(0.,0.,1.));
#363=DIRECTION('ref_axis',(-1.,0.,0.));
#364=DIRECTION('center_axis',(0.,0.,1.));
#365=DIRECTION('ref_axis',(-1.,0.,0.));
#366=DIRECTION('',(0.,0.,-1.));
#367=DIRECTION('center_axis',(0.,0.,1.));
#368=DIRECTION('ref_axis',(1.,0.,0.));
#369=DIRECTION('center_axis',(0.,0.,1.));
#370=DIRECTION('ref_axis',(1.,0.,0.));
#371=DIRECTION('center_axis',(0.,0.,-1.));
#372=DIRECTION('ref_axis',(-1.,0.,0.));
#373=DIRECTION('center_axis',(0.,0.,1.));
#374=DIRECTION('ref_axis',(-1.,0.,0.));
#375=DIRECTION('center_axis',(0.,0.,1.));
#376=DIRECTION('ref_axis',(-1.,0.,0.));
#377=DIRECTION('',(0.,0.,-1.));
#378=DIRECTION('center_axis',(0.,0.,1.));
#379=DIRECTION('ref_axis',(1.,0.,0.));
#380=DIRECTION('center_axis',(0.,0.,1.));
#381=DIRECTION('ref_axis',(1.,0.,0.));
#382=DIRECTION('center_axis',(0.,0.,-1.));
#383=DIRECTION('ref_axis',(-1.,0.,0.));
#384=DIRECTION('center_axis',(0.,0.,1.));
#385=DIRECTION('ref_axis',(-1.,0.,0.));
#386=DIRECTION('center_axis',(0.,0.,1.));
#387=DIRECTION('ref_axis',(-1.,0.,0.));
#388=DIRECTION('',(0.,0.,-1.));
#389=DIRECTION('center_axis',(0.,0.,1.));
#390=DIRECTION('ref_axis',(1.,0.,0.));
#391=DIRECTION('center_axis',(0.,0.,1.));
#392=DIRECTION('ref_axis',(1.,0.,0.));
#393=DIRECTION('center_axis',(0.,0.,-1.));
#394=DIRECTION('ref_axis',(-1.,0.,0.));
#395=DIRECTION('center_axis',(0.,0.,1.));
#396=DIRECTION('ref_axis',(-1.,0.,0.));
#397=DIRECTION('center_axis',(0.,0.,1.));
#398=DIRECTION('ref_axis',(-1.,0.,0.));
#399=DIRECTION('',(0.,0.,-1.));
#400=DIRECTION('center_axis',(0.,0.,1.));
#401=DIRECTION('ref_axis',(1.,0.,0.));
#402=CARTESIAN_POINT('',(0.,0.,0.));
#403=CARTESIAN_POINT('Origin',(0.,0.,90.));
#404=CARTESIAN_POINT('',(-100.,1.5,90.));
#405=CARTESIAN_POINT('Origin',(-100.,0.,90.));
#406=CARTESIAN_POINT('',(0.,1.5,90.));
#407=CARTESIAN_POINT('',(0.,1.5,90.));
#408=CARTESIAN_POINT('Origin',(0.,0.,90.));
#409=CARTESIAN_POINT('Origin',(-100.,-9.24069061438667E-17,90.));
#410=CARTESIAN_POINT('Origin',(0.,-9.24069061438667E-17,90.));
#411=CARTESIAN_POINT('Origin',(0.,0.,30.));
#412=CARTESIAN_POINT('',(-100.,1.5,30.));
#413=CARTESIAN_POINT('Origin',(-100.,0.,30.));
#414=CARTESIAN_POINT('',(0.,1.5,30.));
#415=CARTESIAN_POINT('',(0.,1.5,30.));
#416=CARTESIAN_POINT('Origin',(0.,0.,30.));
#417=CARTESIAN_POINT('Origin',(-100.,-9.24069061438667E-17,30.));
#418=CARTESIAN_POINT('Origin',(0.,-9.24069061438667E-17,30.));
#419=CARTESIAN_POINT('Origin',(0.,0.,0.));
#420=CARTESIAN_POINT('',(-100.,1.5,1.83697019872103E-16));
#421=CARTESIAN_POINT('Origin',(-100.,0.,0.));
#422=CARTESIAN_POINT('',(0.,1.5,1.83697019872103E-16));
#423=CARTESIAN_POINT('',(0.,1.5,-1.83697019872103E-16));
#424=CARTESIAN_POINT('Origin',(0.,0.,0.));
#425=CARTESIAN_POINT('Origin',(-100.,-9.24069061438667E-17,-3.85494105772624E-17));
#426=CARTESIAN_POINT('Origin',(0.,-9.24069061438667E-17,-3.85494105772624E-17));
#427=CARTESIAN_POINT('Origin',(0.,0.,60.));
#428=CARTESIAN_POINT('',(-100.,1.5,60.));
#429=CARTESIAN_POINT('Origin',(-100.,0.,60.));
#430=CARTESIAN_POINT('',(0.,1.5,60.));
#431=CARTESIAN_POINT('',(0.,1.5,60.));
#432=CARTESIAN_POINT('Origin',(0.,0.,60.));
#433=CARTESIAN_POINT('Origin',(-100.,-9.24069061438667E-17,60.));
#434=CARTESIAN_POINT('Origin',(0.,-9.24069061438667E-17,60.));
#435=CARTESIAN_POINT('Origin',(-95.,3.01,-10.));
#436=CARTESIAN_POINT('',(-93.5,3.01,-10.));
#437=CARTESIAN_POINT('Origin',(-95.,3.01,-10.));
#438=CARTESIAN_POINT('Origin',(-95.,3.01,0.));
#439=CARTESIAN_POINT('',(-93.5,3.01,92.));
#440=CARTESIAN_POINT('Origin',(-95.,3.01,92.));
#441=CARTESIAN_POINT('',(-93.5,3.01,0.));
#442=CARTESIAN_POINT('Origin',(-95.,3.01,92.));
#443=CARTESIAN_POINT('Origin',(-35.,3.01,-10.));
#444=CARTESIAN_POINT('',(-33.5,3.01,-10.));
#445=CARTESIAN_POINT('Origin',(-35.,3.01,-10.));
#446=CARTESIAN_POINT('Origin',(-35.,3.01,0.));
#447=CARTESIAN_POINT('',(-33.5,3.01,92.));
#448=CARTESIAN_POINT('Origin',(-35.,3.01,92.));
#449=CARTESIAN_POINT('',(-33.5,3.01,0.));
#450=CARTESIAN_POINT('Origin',(-35.,3.01,92.));
#451=CARTESIAN_POINT('Origin',(-5.,3.01,-10.));
#452=CARTESIAN_POINT('',(-3.5,3.01,-10.));
#453=CARTESIAN_POINT('Origin',(-5.,3.01,-10.));
#454=CARTESIAN_POINT('Origin',(-5.,3.01,0.));
#455=CARTESIAN_POINT('',(-3.5,3.01,92.));
#456=CARTESIAN_POINT('Origin',(-5.,3.01,92.));
#457=CARTESIAN_POINT('',(-3.5,3.01,0.));
#458=CARTESIAN_POINT('Origin',(-5.,3.01,92.));
#459=CARTESIAN_POINT('Origin',(-65.,3.01,-10.));
#460=CARTESIAN_POINT('',(-63.5,3.01,-10.));
#461=CARTESIAN_POINT('Origin',(-65.,3.01,-10.));
#462=CARTESIAN_POINT('Origin',(-65.,3.01,0.));
#463=CARTESIAN_POINT('',(-63.5,3.01,92.));
#464=CARTESIAN_POINT('Origin',(-65.,3.01,92.));
#465=CARTESIAN_POINT('',(-63.5,3.01,0.));
#466=CARTESIAN_POINT('Origin',(-65.,3.01,92.));
#467=UNCERTAINTY_MEASURE_WITH_UNIT(LENGTH_MEASURE(0.01),#471,
'DISTANCE_ACCURACY_VALUE',
'Maximum model space distance between geometric entities at asserted c
onnectivities');
#468=UNCERTAINTY_MEASURE_WITH_UNIT(LENGTH_MEASURE(0.01),#471,
'DISTANCE_ACCURACY_VALUE',
'Maximum model space distance between geometric entities at asserted c
onnectivities');
#469=(
GEOMETRIC_REPRESENTATION_CONTEXT(3)
GLOBAL_UNCERTAINTY_ASSIGNED_CONTEXT((#467))
GLOBAL_UNIT_ASSIGNED_CONTEXT((#471,#473,#474))
REPRESENTATION_CONTEXT('','3D')
);
#470=(
GEOMETRIC_REPRESENTATION_CONTEXT(3)
GLOBAL_UNCERTAINTY_ASSIGNED_CONTEXT((#468))
GLOBAL_UNIT_ASSIGNED_CONTEXT((#471,#473,#474))
REPRESENTATION_CONTEXT('','3D')
);
#471=(
LENGTH_UNIT()
NAMED_UNIT(*)
SI_UNIT(.MILLI.,.METRE.)
);
#472=(
LENGTH_UNIT()
NAMED_UNIT(*)
SI_UNIT(.CENTI.,.METRE.)
);
#473=(
NAMED_UNIT(*)
PLANE_ANGLE_UNIT()
SI_UNIT($,.RADIAN.)
);
#474=(
NAMED_UNIT(*)
SI_UNIT($,.STERADIAN.)
SOLID_ANGLE_UNIT()
);
#475=SHAPE_DEFINITION_REPRESENTATION(#476,#477);
#476=PRODUCT_DEFINITION_SHAPE('',$,#479);
#477=SHAPE_REPRESENTATION('',(#271),#469);
#478=DESIGN_CONTEXT('part definition',#483,'design');
#479=PRODUCT_DEFINITION('729302','729302',#480,#478);
#480=PRODUCT_DEFINITION_FORMATION('',$,#485);
#481=PRODUCT_RELATED_PRODUCT_CATEGORY('729302','729302',(#485));
#482=APPLICATION_PROTOCOL_DEFINITION('international standard',
'ap203_configuration_controlled_3d_design_of_mechanical_parts_and_asse
mblies_mim_lf',2004,#483);
#483=APPLICATION_CONTEXT(
'Configuration Controlled 3D Design of Mechanical Parts and Assemblies');
#484=MECHANICAL_CONTEXT('part definition',#483,'mechanical');
#485=PRODUCT('729302','729302',$,(#484));
#486=PRESENTATION_STYLE_ASSIGNMENT((#488));
#487=PRESENTATION_STYLE_ASSIGNMENT((#489));
#488=SURFACE_STYLE_USAGE(.BOTH.,#494);
#489=SURFACE_STYLE_USAGE(.BOTH.,#495);
#490=SURFACE_STYLE_RENDERING_WITH_PROPERTIES($,#502,(#492));
#491=SURFACE_STYLE_RENDERING_WITH_PROPERTIES($,#503,(#493));
#492=SURFACE_STYLE_TRANSPARENT(0.);
#493=SURFACE_STYLE_TRANSPARENT(0.);
#494=SURFACE_SIDE_STYLE('',(#496,#490));
#495=SURFACE_SIDE_STYLE('',(#497,#491));
#496=SURFACE_STYLE_FILL_AREA(#498);
#497=SURFACE_STYLE_FILL_AREA(#499);
#498=FILL_AREA_STYLE('',(#500));
#499=FILL_AREA_STYLE('',(#501));
#500=FILL_AREA_STYLE_COLOUR('',#502);
#501=FILL_AREA_STYLE_COLOUR('',#503);
#502=COLOUR_RGB('',0.749019607843137,0.749019607843137,0.749019607843137);
#503=COLOUR_RGB('',0.87843137254902,0.874509803921569,0.858823529411765);
ENDSEC;
END-ISO-10303-21;
