ISO-10303-21;
HEADER;
/* Generated by software containing ST-Developer
 * from STEP Tools, Inc. (www.steptools.com) 
 */

FILE_DESCRIPTION(
/* description */ (''),
/* implementation_level */ '2;1');

FILE_NAME(
/* name */ 
'W:\\_BIG DATA\\STP IGS\\Akcesoria\\Elementy uzupe\X2\0142\X0\niaj\X2\0105\X0\c
e\\Uzupe\X2\0142\X0\niaj\X2\0105\X0\ce\\STP\\Uzupe\X2\0142\X0\niaj\X2\0105\X0\c
e\\700807.stp',
/* time_stamp */ '2022-10-10T07:41:10+02:00',
/* author */ ('aluteckkpl_am'),
/* organization */ (''),
/* preprocessor_version */ 'ST-DEVELOPER v18.1',
/* originating_system */ 'Autodesk Inventor 2021',
/* authorisation */ '');

FILE_SCHEMA (('CONFIG_CONTROL_DESIGN'));
ENDSEC;

DATA;
#10=MECHANICAL_DESIGN_GEOMETRIC_PRESENTATION_REPRESENTATION('',(#13),#470);
#11=SHAPE_REPRESENTATION_RELATIONSHIP('SRR','None',#477,#12);
#12=ADVANCED_BREP_SHAPE_REPRESENTATION('',(#14),#469);
#13=STYLED_ITEM('',(#487),#14);
#14=MANIFOLD_SOLID_BREP('Bry\X2\0142\X0\a1',#254);
#15=(
BOUNDED_CURVE()
B_SPLINE_CURVE(2,(#408,#409,#410),.UNSPECIFIED.,.F.,.F.)
B_SPLINE_CURVE_WITH_KNOTS((3,3),(1.08553374875002,1.19071246530886),
 .UNSPECIFIED.)
CURVE()
GEOMETRIC_REPRESENTATION_ITEM()
RATIONAL_B_SPLINE_CURVE((1.0471416398753,1.0258546260304,1.))
REPRESENTATION_ITEM('')
);
#16=(
BOUNDED_CURVE()
B_SPLINE_CURVE(2,(#414,#415,#416),.UNSPECIFIED.,.F.,.F.)
B_SPLINE_CURVE_WITH_KNOTS((3,3),(0.,0.105178716558835),.UNSPECIFIED.)
CURVE()
GEOMETRIC_REPRESENTATION_ITEM()
RATIONAL_B_SPLINE_CURVE((1.,1.02585462603041,1.04714163987532))
REPRESENTATION_ITEM('')
);
#17=(
BOUNDED_CURVE()
B_SPLINE_CURVE(2,(#426,#427,#428),.UNSPECIFIED.,.F.,.F.)
B_SPLINE_CURVE_WITH_KNOTS((3,3),(0.,0.105178716558839),.UNSPECIFIED.)
CURVE()
GEOMETRIC_REPRESENTATION_ITEM()
RATIONAL_B_SPLINE_CURVE((1.,1.0258546260304,1.0471416398753))
REPRESENTATION_ITEM('')
);
#18=(
BOUNDED_CURVE()
B_SPLINE_CURVE(2,(#446,#447,#448),.UNSPECIFIED.,.F.,.F.)
B_SPLINE_CURVE_WITH_KNOTS((3,3),(1.08553374875003,1.19071246530886),
 .UNSPECIFIED.)
CURVE()
GEOMETRIC_REPRESENTATION_ITEM()
RATIONAL_B_SPLINE_CURVE((1.04714163987532,1.02585462603041,1.))
REPRESENTATION_ITEM('')
);
#19=FACE_BOUND('',#49,.T.);
#20=FACE_BOUND('',#52,.T.);
#21=FACE_BOUND('',#59,.T.);
#22=PLANE('',#281);
#23=PLANE('',#287);
#24=PLANE('',#298);
#25=PLANE('',#302);
#26=PLANE('',#303);
#27=PLANE('',#304);
#28=PLANE('',#305);
#29=CYLINDRICAL_SURFACE('',#278,4.);
#30=CYLINDRICAL_SURFACE('',#289,3.25);
#31=CYLINDRICAL_SURFACE('',#299,1.);
#32=FACE_OUTER_BOUND('',#46,.T.);
#33=FACE_OUTER_BOUND('',#47,.T.);
#34=FACE_OUTER_BOUND('',#48,.T.);
#35=FACE_OUTER_BOUND('',#50,.T.);
#36=FACE_OUTER_BOUND('',#51,.T.);
#37=FACE_OUTER_BOUND('',#53,.T.);
#38=FACE_OUTER_BOUND('',#54,.T.);
#39=FACE_OUTER_BOUND('',#55,.T.);
#40=FACE_OUTER_BOUND('',#56,.T.);
#41=FACE_OUTER_BOUND('',#57,.T.);
#42=FACE_OUTER_BOUND('',#58,.T.);
#43=FACE_OUTER_BOUND('',#60,.T.);
#44=FACE_OUTER_BOUND('',#61,.T.);
#45=FACE_OUTER_BOUND('',#62,.T.);
#46=EDGE_LOOP('',(#166,#167,#168,#169,#170));
#47=EDGE_LOOP('',(#171,#172,#173,#174,#175,#176));
#48=EDGE_LOOP('',(#177));
#49=EDGE_LOOP('',(#178,#179));
#50=EDGE_LOOP('',(#180,#181,#182,#183));
#51=EDGE_LOOP('',(#184,#185,#186,#187,#188,#189));
#52=EDGE_LOOP('',(#190));
#53=EDGE_LOOP('',(#191,#192,#193,#194,#195,#196,#197,#198,#199,#200,#201,
#202,#203));
#54=EDGE_LOOP('',(#204,#205,#206,#207));
#55=EDGE_LOOP('',(#208,#209,#210,#211,#212));
#56=EDGE_LOOP('',(#213));
#57=EDGE_LOOP('',(#214,#215,#216,#217,#218));
#58=EDGE_LOOP('',(#219,#220,#221,#222,#223,#224));
#59=EDGE_LOOP('',(#225,#226));
#60=EDGE_LOOP('',(#227,#228,#229));
#61=EDGE_LOOP('',(#230,#231));
#62=EDGE_LOOP('',(#232,#233,#234,#235));
#63=LINE('',#391,#76);
#64=LINE('',#396,#77);
#65=LINE('',#420,#78);
#66=LINE('',#422,#79);
#67=LINE('',#424,#80);
#68=LINE('',#429,#81);
#69=LINE('',#436,#82);
#70=LINE('',#440,#83);
#71=LINE('',#443,#84);
#72=LINE('',#452,#85);
#73=LINE('',#457,#86);
#74=LINE('',#462,#87);
#75=LINE('',#463,#88);
#76=VECTOR('',#312,3.85);
#77=VECTOR('',#319,4.);
#78=VECTOR('',#338,10.);
#79=VECTOR('',#339,10.);
#80=VECTOR('',#340,10.);
#81=VECTOR('',#341,10.);
#82=VECTOR('',#348,3.25);
#83=VECTOR('',#351,10.);
#84=VECTOR('',#356,10.);
#85=VECTOR('',#363,3.5);
#86=VECTOR('',#370,1.);
#87=VECTOR('',#377,10.);
#88=VECTOR('',#378,10.);
#89=CIRCLE('',#275,4.);
#90=CIRCLE('',#276,3.7);
#91=CIRCLE('',#277,4.);
#92=CIRCLE('',#279,4.);
#93=CIRCLE('',#280,4.);
#94=CIRCLE('',#282,3.25);
#95=CIRCLE('',#283,3.25);
#96=CIRCLE('',#285,2.95);
#97=CIRCLE('',#286,3.25);
#98=CIRCLE('',#288,1.);
#99=CIRCLE('',#290,3.25);
#100=CIRCLE('',#291,3.25);
#101=CIRCLE('',#292,3.25);
#102=CIRCLE('',#293,3.25);
#103=CIRCLE('',#295,2.95);
#104=CIRCLE('',#297,3.);
#105=CIRCLE('',#300,1.);
#106=CIRCLE('',#301,1.);
#107=VERTEX_POINT('',#387);
#108=VERTEX_POINT('',#388);
#109=VERTEX_POINT('',#390);
#110=VERTEX_POINT('',#395);
#111=VERTEX_POINT('',#397);
#112=VERTEX_POINT('',#401);
#113=VERTEX_POINT('',#402);
#114=VERTEX_POINT('',#406);
#115=VERTEX_POINT('',#407);
#116=VERTEX_POINT('',#411);
#117=VERTEX_POINT('',#413);
#118=VERTEX_POINT('',#419);
#119=VERTEX_POINT('',#421);
#120=VERTEX_POINT('',#423);
#121=VERTEX_POINT('',#425);
#122=VERTEX_POINT('',#430);
#123=VERTEX_POINT('',#433);
#124=VERTEX_POINT('',#434);
#125=VERTEX_POINT('',#437);
#126=VERTEX_POINT('',#439);
#127=VERTEX_POINT('',#445);
#128=VERTEX_POINT('',#451);
#129=VERTEX_POINT('',#456);
#130=VERTEX_POINT('',#458);
#131=EDGE_CURVE('',#107,#108,#89,.T.);
#132=EDGE_CURVE('',#108,#109,#63,.T.);
#133=EDGE_CURVE('',#109,#109,#90,.T.);
#134=EDGE_CURVE('',#108,#107,#91,.T.);
#135=EDGE_CURVE('',#107,#110,#64,.T.);
#136=EDGE_CURVE('',#111,#110,#92,.T.);
#137=EDGE_CURVE('',#110,#111,#93,.T.);
#138=EDGE_CURVE('',#112,#113,#94,.T.);
#139=EDGE_CURVE('',#113,#112,#95,.T.);
#140=EDGE_CURVE('',#114,#115,#15,.T.);
#141=EDGE_CURVE('',#115,#116,#96,.T.);
#142=EDGE_CURVE('',#116,#117,#16,.T.);
#143=EDGE_CURVE('',#117,#114,#97,.T.);
#144=EDGE_CURVE('',#118,#114,#65,.T.);
#145=EDGE_CURVE('',#119,#118,#66,.T.);
#146=EDGE_CURVE('',#120,#119,#67,.T.);
#147=EDGE_CURVE('',#121,#120,#17,.T.);
#148=EDGE_CURVE('',#115,#121,#68,.T.);
#149=EDGE_CURVE('',#122,#122,#98,.T.);
#150=EDGE_CURVE('',#123,#124,#99,.T.);
#151=EDGE_CURVE('',#124,#113,#69,.T.);
#152=EDGE_CURVE('',#124,#125,#100,.T.);
#153=EDGE_CURVE('',#125,#126,#70,.T.);
#154=EDGE_CURVE('',#120,#126,#101,.T.);
#155=EDGE_CURVE('',#119,#118,#102,.T.);
#156=EDGE_CURVE('',#117,#123,#71,.T.);
#157=EDGE_CURVE('',#126,#127,#18,.T.);
#158=EDGE_CURVE('',#127,#121,#103,.T.);
#159=EDGE_CURVE('',#111,#128,#72,.T.);
#160=EDGE_CURVE('',#128,#128,#104,.T.);
#161=EDGE_CURVE('',#122,#129,#73,.T.);
#162=EDGE_CURVE('',#130,#129,#105,.T.);
#163=EDGE_CURVE('',#129,#130,#106,.T.);
#164=EDGE_CURVE('',#127,#116,#74,.T.);
#165=EDGE_CURVE('',#123,#125,#75,.T.);
#166=ORIENTED_EDGE('',*,*,#131,.T.);
#167=ORIENTED_EDGE('',*,*,#132,.T.);
#168=ORIENTED_EDGE('',*,*,#133,.T.);
#169=ORIENTED_EDGE('',*,*,#132,.F.);
#170=ORIENTED_EDGE('',*,*,#134,.T.);
#171=ORIENTED_EDGE('',*,*,#131,.F.);
#172=ORIENTED_EDGE('',*,*,#135,.T.);
#173=ORIENTED_EDGE('',*,*,#136,.F.);
#174=ORIENTED_EDGE('',*,*,#137,.F.);
#175=ORIENTED_EDGE('',*,*,#135,.F.);
#176=ORIENTED_EDGE('',*,*,#134,.F.);
#177=ORIENTED_EDGE('',*,*,#133,.F.);
#178=ORIENTED_EDGE('',*,*,#138,.F.);
#179=ORIENTED_EDGE('',*,*,#139,.F.);
#180=ORIENTED_EDGE('',*,*,#140,.T.);
#181=ORIENTED_EDGE('',*,*,#141,.T.);
#182=ORIENTED_EDGE('',*,*,#142,.T.);
#183=ORIENTED_EDGE('',*,*,#143,.T.);
#184=ORIENTED_EDGE('',*,*,#140,.F.);
#185=ORIENTED_EDGE('',*,*,#144,.F.);
#186=ORIENTED_EDGE('',*,*,#145,.F.);
#187=ORIENTED_EDGE('',*,*,#146,.F.);
#188=ORIENTED_EDGE('',*,*,#147,.F.);
#189=ORIENTED_EDGE('',*,*,#148,.F.);
#190=ORIENTED_EDGE('',*,*,#149,.T.);
#191=ORIENTED_EDGE('',*,*,#150,.T.);
#192=ORIENTED_EDGE('',*,*,#151,.T.);
#193=ORIENTED_EDGE('',*,*,#139,.T.);
#194=ORIENTED_EDGE('',*,*,#138,.T.);
#195=ORIENTED_EDGE('',*,*,#151,.F.);
#196=ORIENTED_EDGE('',*,*,#152,.T.);
#197=ORIENTED_EDGE('',*,*,#153,.T.);
#198=ORIENTED_EDGE('',*,*,#154,.F.);
#199=ORIENTED_EDGE('',*,*,#146,.T.);
#200=ORIENTED_EDGE('',*,*,#155,.T.);
#201=ORIENTED_EDGE('',*,*,#144,.T.);
#202=ORIENTED_EDGE('',*,*,#143,.F.);
#203=ORIENTED_EDGE('',*,*,#156,.T.);
#204=ORIENTED_EDGE('',*,*,#157,.T.);
#205=ORIENTED_EDGE('',*,*,#158,.T.);
#206=ORIENTED_EDGE('',*,*,#147,.T.);
#207=ORIENTED_EDGE('',*,*,#154,.T.);
#208=ORIENTED_EDGE('',*,*,#136,.T.);
#209=ORIENTED_EDGE('',*,*,#137,.T.);
#210=ORIENTED_EDGE('',*,*,#159,.T.);
#211=ORIENTED_EDGE('',*,*,#160,.T.);
#212=ORIENTED_EDGE('',*,*,#159,.F.);
#213=ORIENTED_EDGE('',*,*,#160,.F.);
#214=ORIENTED_EDGE('',*,*,#149,.F.);
#215=ORIENTED_EDGE('',*,*,#161,.T.);
#216=ORIENTED_EDGE('',*,*,#162,.F.);
#217=ORIENTED_EDGE('',*,*,#163,.F.);
#218=ORIENTED_EDGE('',*,*,#161,.F.);
#219=ORIENTED_EDGE('',*,*,#142,.F.);
#220=ORIENTED_EDGE('',*,*,#164,.F.);
#221=ORIENTED_EDGE('',*,*,#157,.F.);
#222=ORIENTED_EDGE('',*,*,#153,.F.);
#223=ORIENTED_EDGE('',*,*,#165,.F.);
#224=ORIENTED_EDGE('',*,*,#156,.F.);
#225=ORIENTED_EDGE('',*,*,#162,.T.);
#226=ORIENTED_EDGE('',*,*,#163,.T.);
#227=ORIENTED_EDGE('',*,*,#165,.T.);
#228=ORIENTED_EDGE('',*,*,#152,.F.);
#229=ORIENTED_EDGE('',*,*,#150,.F.);
#230=ORIENTED_EDGE('',*,*,#155,.F.);
#231=ORIENTED_EDGE('',*,*,#145,.T.);
#232=ORIENTED_EDGE('',*,*,#141,.F.);
#233=ORIENTED_EDGE('',*,*,#148,.T.);
#234=ORIENTED_EDGE('',*,*,#158,.F.);
#235=ORIENTED_EDGE('',*,*,#164,.T.);
#236=CONICAL_SURFACE('',#274,3.85,0.785398163397449);
#237=CONICAL_SURFACE('',#284,3.1,0.785398163397453);
#238=CONICAL_SURFACE('',#294,3.1,0.785398163397453);
#239=CONICAL_SURFACE('',#296,3.5,0.785398163397448);
#240=ADVANCED_FACE('',(#32),#236,.T.);
#241=ADVANCED_FACE('',(#33),#29,.T.);
#242=ADVANCED_FACE('',(#34,#19),#22,.T.);
#243=ADVANCED_FACE('',(#35),#237,.T.);
#244=ADVANCED_FACE('',(#36,#20),#23,.F.);
#245=ADVANCED_FACE('',(#37),#30,.T.);
#246=ADVANCED_FACE('',(#38),#238,.T.);
#247=ADVANCED_FACE('',(#39),#239,.T.);
#248=ADVANCED_FACE('',(#40),#24,.T.);
#249=ADVANCED_FACE('',(#41),#31,.F.);
#250=ADVANCED_FACE('',(#42,#21),#25,.F.);
#251=ADVANCED_FACE('',(#43),#26,.T.);
#252=ADVANCED_FACE('',(#44),#27,.T.);
#253=ADVANCED_FACE('',(#45),#28,.T.);
#254=CLOSED_SHELL('',(#240,#241,#242,#243,#244,#245,#246,#247,#248,#249,
#250,#251,#252,#253));
#255=DERIVED_UNIT_ELEMENT(#257,1.);
#256=DERIVED_UNIT_ELEMENT(#472,3.);
#257=(
MASS_UNIT()
NAMED_UNIT(*)
SI_UNIT($,.GRAM.)
);
#258=DERIVED_UNIT((#255,#256));
#259=MEASURE_REPRESENTATION_ITEM('density measure',
POSITIVE_RATIO_MEASURE(7.85),#258);
#260=PROPERTY_DEFINITION_REPRESENTATION(#265,#262);
#261=PROPERTY_DEFINITION_REPRESENTATION(#266,#263);
#262=REPRESENTATION('material name',(#264),#469);
#263=REPRESENTATION('density',(#259),#469);
#264=DESCRIPTIVE_REPRESENTATION_ITEM('Ocel pozinkovan\X\E1',
'Ocel pozinkovan\X\E1');
#265=PROPERTY_DEFINITION('material property','material name',#479);
#266=PROPERTY_DEFINITION('material property','density of part',#479);
#267=DATE_TIME_ROLE('creation_date');
#268=CC_DESIGN_DATE_AND_TIME_ASSIGNMENT(#269,#267,(#479));
#269=DATE_AND_TIME(#270,#271);
#270=CALENDAR_DATE(2014,3,1);
#271=LOCAL_TIME(0,0,0.,#272);
#272=COORDINATED_UNIVERSAL_TIME_OFFSET(0,0,.BEHIND.);
#273=AXIS2_PLACEMENT_3D('placement',#385,#306,#307);
#274=AXIS2_PLACEMENT_3D('',#386,#308,#309);
#275=AXIS2_PLACEMENT_3D('',#389,#310,#311);
#276=AXIS2_PLACEMENT_3D('',#392,#313,#314);
#277=AXIS2_PLACEMENT_3D('',#393,#315,#316);
#278=AXIS2_PLACEMENT_3D('',#394,#317,#318);
#279=AXIS2_PLACEMENT_3D('',#398,#320,#321);
#280=AXIS2_PLACEMENT_3D('',#399,#322,#323);
#281=AXIS2_PLACEMENT_3D('',#400,#324,#325);
#282=AXIS2_PLACEMENT_3D('',#403,#326,#327);
#283=AXIS2_PLACEMENT_3D('',#404,#328,#329);
#284=AXIS2_PLACEMENT_3D('',#405,#330,#331);
#285=AXIS2_PLACEMENT_3D('',#412,#332,#333);
#286=AXIS2_PLACEMENT_3D('',#417,#334,#335);
#287=AXIS2_PLACEMENT_3D('',#418,#336,#337);
#288=AXIS2_PLACEMENT_3D('',#431,#342,#343);
#289=AXIS2_PLACEMENT_3D('',#432,#344,#345);
#290=AXIS2_PLACEMENT_3D('',#435,#346,#347);
#291=AXIS2_PLACEMENT_3D('',#438,#349,#350);
#292=AXIS2_PLACEMENT_3D('',#441,#352,#353);
#293=AXIS2_PLACEMENT_3D('',#442,#354,#355);
#294=AXIS2_PLACEMENT_3D('',#444,#357,#358);
#295=AXIS2_PLACEMENT_3D('',#449,#359,#360);
#296=AXIS2_PLACEMENT_3D('',#450,#361,#362);
#297=AXIS2_PLACEMENT_3D('',#453,#364,#365);
#298=AXIS2_PLACEMENT_3D('',#454,#366,#367);
#299=AXIS2_PLACEMENT_3D('',#455,#368,#369);
#300=AXIS2_PLACEMENT_3D('',#459,#371,#372);
#301=AXIS2_PLACEMENT_3D('',#460,#373,#374);
#302=AXIS2_PLACEMENT_3D('',#461,#375,#376);
#303=AXIS2_PLACEMENT_3D('',#464,#379,#380);
#304=AXIS2_PLACEMENT_3D('',#465,#381,#382);
#305=AXIS2_PLACEMENT_3D('',#466,#383,#384);
#306=DIRECTION('axis',(0.,0.,1.));
#307=DIRECTION('refdir',(1.,0.,0.));
#308=DIRECTION('center_axis',(-1.,-1.85037170770861E-16,0.));
#309=DIRECTION('ref_axis',(1.85037170770861E-16,-1.,0.));
#310=DIRECTION('center_axis',(1.,1.85037170770859E-16,0.));
#311=DIRECTION('ref_axis',(1.85037170770859E-16,-1.,0.));
#312=DIRECTION('',(0.707106781186547,-0.707106781186548,8.65956056235494E-17));
#313=DIRECTION('center_axis',(-1.,-1.85037170770859E-16,0.));
#314=DIRECTION('ref_axis',(1.85037170770859E-16,-1.,0.));
#315=DIRECTION('center_axis',(1.,1.85037170770859E-16,0.));
#316=DIRECTION('ref_axis',(1.85037170770859E-16,-1.,0.));
#317=DIRECTION('center_axis',(1.,1.85037170770859E-16,0.));
#318=DIRECTION('ref_axis',(-1.85037170770859E-16,1.,0.));
#319=DIRECTION('',(-1.,-1.85037170770859E-16,0.));
#320=DIRECTION('center_axis',(-1.,-1.85037170770859E-16,0.));
#321=DIRECTION('ref_axis',(1.85037170770859E-16,-1.,0.));
#322=DIRECTION('center_axis',(-1.,-1.85037170770859E-16,0.));
#323=DIRECTION('ref_axis',(1.85037170770859E-16,-1.,0.));
#324=DIRECTION('center_axis',(1.,1.85037170770859E-16,0.));
#325=DIRECTION('ref_axis',(0.,0.,-1.));
#326=DIRECTION('center_axis',(1.,1.85037170770859E-16,0.));
#327=DIRECTION('ref_axis',(-1.85037170770859E-16,1.,0.));
#328=DIRECTION('center_axis',(1.,1.85037170770859E-16,0.));
#329=DIRECTION('ref_axis',(-1.85037170770859E-16,1.,0.));
#330=DIRECTION('center_axis',(-1.,-1.8503717077086E-16,0.));
#331=DIRECTION('ref_axis',(-1.8503717077086E-16,1.,0.));
#332=DIRECTION('center_axis',(-1.,-1.85037170770859E-16,0.));
#333=DIRECTION('ref_axis',(-1.85037170770859E-16,1.,0.));
#334=DIRECTION('center_axis',(1.,1.85037170770859E-16,0.));
#335=DIRECTION('ref_axis',(-1.85037170770859E-16,1.,0.));
#336=DIRECTION('center_axis',(1.73472347597681E-16,-1.,0.));
#337=DIRECTION('ref_axis',(0.,0.,-1.));
#338=DIRECTION('',(1.,1.85037170770859E-16,0.));
#339=DIRECTION('',(0.,0.,-1.));
#340=DIRECTION('',(-1.,-1.85037170770859E-16,0.));
#341=DIRECTION('',(0.,0.,1.));
#342=DIRECTION('center_axis',(1.73472347597681E-16,-1.,0.));
#343=DIRECTION('ref_axis',(1.,1.73472347597681E-16,0.));
#344=DIRECTION('center_axis',(1.,1.85037170770859E-16,0.));
#345=DIRECTION('ref_axis',(-1.85037170770859E-16,1.,0.));
#346=DIRECTION('center_axis',(-1.,0.,0.));
#347=DIRECTION('ref_axis',(0.,1.,0.));
#348=DIRECTION('',(-1.,-1.85037170770859E-16,0.));
#349=DIRECTION('center_axis',(-1.,0.,0.));
#350=DIRECTION('ref_axis',(0.,1.,0.));
#351=DIRECTION('',(1.,1.85037170770859E-16,0.));
#352=DIRECTION('center_axis',(1.,1.85037170770859E-16,0.));
#353=DIRECTION('ref_axis',(-1.85037170770859E-16,1.,0.));
#354=DIRECTION('center_axis',(-1.,0.,0.));
#355=DIRECTION('ref_axis',(0.,1.,0.));
#356=DIRECTION('',(-1.,-1.85037170770859E-16,0.));
#357=DIRECTION('center_axis',(-1.,-1.8503717077086E-16,0.));
#358=DIRECTION('ref_axis',(-1.8503717077086E-16,1.,0.));
#359=DIRECTION('center_axis',(-1.,-1.85037170770859E-16,0.));
#360=DIRECTION('ref_axis',(-1.85037170770859E-16,1.,0.));
#361=DIRECTION('center_axis',(1.,1.85037170770859E-16,0.));
#362=DIRECTION('ref_axis',(1.85037170770859E-16,-1.,0.));
#363=DIRECTION('',(-0.707106781186548,-0.707106781186547,-8.65956056235493E-17));
#364=DIRECTION('center_axis',(1.,1.85037170770859E-16,0.));
#365=DIRECTION('ref_axis',(1.85037170770859E-16,-1.,0.));
#366=DIRECTION('center_axis',(-1.,-1.85037170770859E-16,0.));
#367=DIRECTION('ref_axis',(0.,0.,1.));
#368=DIRECTION('center_axis',(1.73472347597681E-16,-1.,0.));
#369=DIRECTION('ref_axis',(1.,1.73472347597681E-16,0.));
#370=DIRECTION('',(1.73472347597681E-16,-1.,0.));
#371=DIRECTION('center_axis',(-1.73472347597681E-16,1.,0.));
#372=DIRECTION('ref_axis',(1.,1.73472347597681E-16,0.));
#373=DIRECTION('center_axis',(-1.73472347597681E-16,1.,0.));
#374=DIRECTION('ref_axis',(1.,1.73472347597681E-16,0.));
#375=DIRECTION('center_axis',(-1.73472347597681E-16,1.,0.));
#376=DIRECTION('ref_axis',(0.,0.,1.));
#377=DIRECTION('',(0.,0.,-1.));
#378=DIRECTION('',(0.,0.,1.));
#379=DIRECTION('center_axis',(1.,0.,0.));
#380=DIRECTION('ref_axis',(0.,0.,-1.));
#381=DIRECTION('center_axis',(1.,0.,0.));
#382=DIRECTION('ref_axis',(0.,0.,-1.));
#383=DIRECTION('center_axis',(1.,1.85037170770859E-16,0.));
#384=DIRECTION('ref_axis',(0.,0.,-1.));
#385=CARTESIAN_POINT('',(0.,0.,0.));
#386=CARTESIAN_POINT('Origin',(16.85,3.11787632748898E-15,0.));
#387=CARTESIAN_POINT('',(16.7,-4.,-4.89858719658941E-16));
#388=CARTESIAN_POINT('',(16.7,4.00000000000001,-4.89858719658942E-16));
#389=CARTESIAN_POINT('Origin',(16.7,3.09012075187335E-15,0.));
#390=CARTESIAN_POINT('',(17.,3.7,-4.5311931568452E-16));
#391=CARTESIAN_POINT('',(16.85,3.85,-4.71489017671731E-16));
#392=CARTESIAN_POINT('Origin',(17.,3.14563190310461E-15,0.));
#393=CARTESIAN_POINT('Origin',(16.7,3.09012075187335E-15,0.));
#394=CARTESIAN_POINT('Origin',(8.5,1.57281595155231E-15,0.));
#395=CARTESIAN_POINT('',(1.,-4.,-4.89858719658941E-16));
#396=CARTESIAN_POINT('',(8.5,-4.,-4.89858719658941E-16));
#397=CARTESIAN_POINT('',(1.,4.,-4.89858719658941E-16));
#398=CARTESIAN_POINT('Origin',(1.,1.8503717077086E-16,0.));
#399=CARTESIAN_POINT('Origin',(1.,1.8503717077086E-16,0.));
#400=CARTESIAN_POINT('Origin',(17.,3.625,0.));
#401=CARTESIAN_POINT('',(17.,3.25,0.));
#402=CARTESIAN_POINT('',(17.,-3.25,-3.9801020972289E-16));
#403=CARTESIAN_POINT('Origin',(17.,3.14563190310461E-15,0.));
#404=CARTESIAN_POINT('Origin',(17.,3.14563190310461E-15,0.));
#405=CARTESIAN_POINT('Origin',(29.85,5.52335954751015E-15,0.));
#406=CARTESIAN_POINT('',(29.7,2.25000000000001,-2.34520787991171));
#407=CARTESIAN_POINT('',(30.,2.25000000000001,-1.90787840283389));
#408=CARTESIAN_POINT('Ctrl Pts',(29.7,2.25000000000001,-2.34520787991171));
#409=CARTESIAN_POINT('Ctrl Pts',(29.8654239573807,2.25000000000001,-2.11596258950803));
#410=CARTESIAN_POINT('Ctrl Pts',(30.,2.25000000000001,-1.90787840283389));
#411=CARTESIAN_POINT('',(30.,-2.24999999999999,-1.90787840283389));
#412=CARTESIAN_POINT('Origin',(30.,5.55111512312578E-15,0.));
#413=CARTESIAN_POINT('',(29.7,-2.24999999999999,-2.34520787991171));
#414=CARTESIAN_POINT('Ctrl Pts',(30.,-2.24999999999999,-1.90787840283389));
#415=CARTESIAN_POINT('Ctrl Pts',(29.8654239573807,-2.24999999999999,-2.11596258950804));
#416=CARTESIAN_POINT('Ctrl Pts',(29.7,-2.24999999999999,-2.34520787991171));
#417=CARTESIAN_POINT('Origin',(29.7,5.49560397189452E-15,0.));
#418=CARTESIAN_POINT('Origin',(30.,2.25000000000001,2.34520787991171));
#419=CARTESIAN_POINT('',(22.,2.25,-2.34520787991171));
#420=CARTESIAN_POINT('',(23.5,2.25,-2.34520787991171));
#421=CARTESIAN_POINT('',(22.,2.25,2.34520787991171));
#422=CARTESIAN_POINT('',(22.,2.25,2.34520787991171));
#423=CARTESIAN_POINT('',(29.7,2.25000000000001,2.34520787991171));
#424=CARTESIAN_POINT('',(23.5,2.25,2.34520787991171));
#425=CARTESIAN_POINT('',(30.,2.25000000000001,1.90787840283389));
#426=CARTESIAN_POINT('Ctrl Pts',(30.,2.25000000000001,1.90787840283389));
#427=CARTESIAN_POINT('Ctrl Pts',(29.8654239573807,2.25000000000001,2.11596258950804));
#428=CARTESIAN_POINT('Ctrl Pts',(29.7,2.25000000000001,2.34520787991171));
#429=CARTESIAN_POINT('',(30.,2.25000000000001,1.17260393995586));
#430=CARTESIAN_POINT('',(26.,2.25,0.000207879911710995));
#431=CARTESIAN_POINT('Origin',(27.,2.25000000000001,0.000207879911711117));
#432=CARTESIAN_POINT('Origin',(23.5,4.3483735131152E-15,0.));
#433=CARTESIAN_POINT('',(22.,-2.25,-2.34520787991171));
#434=CARTESIAN_POINT('',(22.,-3.25,-3.9801020972289E-16));
#435=CARTESIAN_POINT('Origin',(22.,4.07081775695891E-15,0.));
#436=CARTESIAN_POINT('',(23.5,-3.25,-3.9801020972289E-16));
#437=CARTESIAN_POINT('',(22.,-2.25,2.34520787991171));
#438=CARTESIAN_POINT('Origin',(22.,4.07081775695891E-15,0.));
#439=CARTESIAN_POINT('',(29.7,-2.24999999999999,2.34520787991171));
#440=CARTESIAN_POINT('',(23.5,-2.25,2.34520787991171));
#441=CARTESIAN_POINT('Origin',(29.7,5.49560397189452E-15,0.));
#442=CARTESIAN_POINT('Origin',(22.,4.07081775695891E-15,0.));
#443=CARTESIAN_POINT('',(23.5,-2.25,-2.34520787991171));
#444=CARTESIAN_POINT('Origin',(29.85,5.52335954751015E-15,0.));
#445=CARTESIAN_POINT('',(30.,-2.24999999999999,1.90787840283389));
#446=CARTESIAN_POINT('Ctrl Pts',(29.7,-2.25,2.34520787991171));
#447=CARTESIAN_POINT('Ctrl Pts',(29.8654239573807,-2.24999999999999,2.11596258950805));
#448=CARTESIAN_POINT('Ctrl Pts',(30.,-2.24999999999999,1.90787840283389));
#449=CARTESIAN_POINT('Origin',(30.,5.55111512312578E-15,0.));
#450=CARTESIAN_POINT('Origin',(0.5,9.25185853854299E-17,0.));
#451=CARTESIAN_POINT('',(-1.38777878078145E-16,3.,3.67394039744206E-16));
#452=CARTESIAN_POINT('',(0.499999999999999,3.5,4.28626379701574E-16));
#453=CARTESIAN_POINT('Origin',(4.16333634234434E-16,2.1570415377137E-31,
0.));
#454=CARTESIAN_POINT('Origin',(0.,2.,0.));
#455=CARTESIAN_POINT('Origin',(27.,29.8124390837628,0.000207879911711117));
#456=CARTESIAN_POINT('',(26.,-2.25,0.000207879911710995));
#457=CARTESIAN_POINT('',(26.,29.8124390837628,0.000207879911710995));
#458=CARTESIAN_POINT('',(28.,-2.24999999999999,0.000207879911711117));
#459=CARTESIAN_POINT('Origin',(27.,-2.25,0.000207879911711117));
#460=CARTESIAN_POINT('Origin',(27.,-2.25,0.000207879911711117));
#461=CARTESIAN_POINT('Origin',(30.,-2.24999999999999,-2.34520787991171));
#462=CARTESIAN_POINT('',(30.,-2.24999999999999,-1.17260393995586));
#463=CARTESIAN_POINT('',(22.,-2.25,-2.34520787991171));
#464=CARTESIAN_POINT('Origin',(22.,-2.56322383360434,-1.59769013346082E-16));
#465=CARTESIAN_POINT('Origin',(22.,2.56322383360434,1.46454928900575E-16));
#466=CARTESIAN_POINT('Origin',(30.,1.625,0.));
#467=UNCERTAINTY_MEASURE_WITH_UNIT(LENGTH_MEASURE(0.01),#471,
'DISTANCE_ACCURACY_VALUE',
'Maximum model space distance between geometric entities at asserted c
onnectivities');
#468=UNCERTAINTY_MEASURE_WITH_UNIT(LENGTH_MEASURE(0.01),#471,
'DISTANCE_ACCURACY_VALUE',
'Maximum model space distance between geometric entities at asserted c
onnectivities');
#469=(
GEOMETRIC_REPRESENTATION_CONTEXT(3)
GLOBAL_UNCERTAINTY_ASSIGNED_CONTEXT((#467))
GLOBAL_UNIT_ASSIGNED_CONTEXT((#471,#473,#474))
REPRESENTATION_CONTEXT('','3D')
);
#470=(
GEOMETRIC_REPRESENTATION_CONTEXT(3)
GLOBAL_UNCERTAINTY_ASSIGNED_CONTEXT((#468))
GLOBAL_UNIT_ASSIGNED_CONTEXT((#471,#473,#474))
REPRESENTATION_CONTEXT('','3D')
);
#471=(
LENGTH_UNIT()
NAMED_UNIT(*)
SI_UNIT(.MILLI.,.METRE.)
);
#472=(
LENGTH_UNIT()
NAMED_UNIT(*)
SI_UNIT(.CENTI.,.METRE.)
);
#473=(
NAMED_UNIT(*)
PLANE_ANGLE_UNIT()
SI_UNIT($,.RADIAN.)
);
#474=(
NAMED_UNIT(*)
SI_UNIT($,.STERADIAN.)
SOLID_ANGLE_UNIT()
);
#475=SHAPE_DEFINITION_REPRESENTATION(#476,#477);
#476=PRODUCT_DEFINITION_SHAPE('',$,#479);
#477=SHAPE_REPRESENTATION('',(#273),#469);
#478=DESIGN_CONTEXT('part definition',#483,'design');
#479=PRODUCT_DEFINITION('700807','700807',#480,#478);
#480=PRODUCT_DEFINITION_FORMATION('',$,#485);
#481=PRODUCT_RELATED_PRODUCT_CATEGORY('700807','700807',(#485));
#482=APPLICATION_PROTOCOL_DEFINITION('international standard',
'ap203_configuration_controlled_3d_design_of_mechanical_parts_and_asse
mblies_mim_lf',2004,#483);
#483=APPLICATION_CONTEXT(
'Configuration Controlled 3D Design of Mechanical Parts and Assemblies');
#484=MECHANICAL_CONTEXT('part definition',#483,'mechanical');
#485=PRODUCT('700807','700807',$,(#484));
#486=PRESENTATION_STYLE_ASSIGNMENT((#488));
#487=PRESENTATION_STYLE_ASSIGNMENT((#489));
#488=SURFACE_STYLE_USAGE(.BOTH.,#494);
#489=SURFACE_STYLE_USAGE(.BOTH.,#495);
#490=SURFACE_STYLE_RENDERING_WITH_PROPERTIES($,#502,(#492));
#491=SURFACE_STYLE_RENDERING_WITH_PROPERTIES($,#503,(#493));
#492=SURFACE_STYLE_TRANSPARENT(0.);
#493=SURFACE_STYLE_TRANSPARENT(0.);
#494=SURFACE_SIDE_STYLE('',(#496,#490));
#495=SURFACE_SIDE_STYLE('',(#497,#491));
#496=SURFACE_STYLE_FILL_AREA(#498);
#497=SURFACE_STYLE_FILL_AREA(#499);
#498=FILL_AREA_STYLE('',(#500));
#499=FILL_AREA_STYLE('',(#501));
#500=FILL_AREA_STYLE_COLOUR('',#502);
#501=FILL_AREA_STYLE_COLOUR('',#503);
#502=COLOUR_RGB('',0.749019607843137,0.749019607843137,0.749019607843137);
#503=COLOUR_RGB('',0.63921568627451,0.63921568627451,0.662745098039216);
ENDSEC;
END-ISO-10303-21;
