ISO-10303-21;
HEADER;
/* Generated by software containing ST-Developer
 * from STEP Tools, Inc. (www.steptools.com) 
 */

FILE_DESCRIPTION(
/* description */ (''),
/* implementation_level */ '2;1');

FILE_NAME(
/* name */ 
'W:\\_BIG DATA\\STP IGS\\Akcesoria\\Elementy uzupe\X2\0142\X0\niaj\X2\0105\X0\c
e\\Uzupe\X2\0142\X0\niaj\X2\0105\X0\ce\\STP\\Uzupe\X2\0142\X0\niaj\X2\0105\X0\c
e\\700500.stp',
/* time_stamp */ '2022-10-10T08:34:49+02:00',
/* author */ ('aluteckkpl_am'),
/* organization */ (''),
/* preprocessor_version */ 'ST-DEVELOPER v18.1',
/* originating_system */ 'Autodesk Inventor 2021',
/* authorisation */ '');

FILE_SCHEMA (('CONFIG_CONTROL_DESIGN'));
ENDSEC;

DATA;
#10=MECHANICAL_DESIGN_GEOMETRIC_PRESENTATION_REPRESENTATION('',(#13),#717);
#11=SHAPE_REPRESENTATION_RELATIONSHIP('SRR','None',#724,#12);
#12=ADVANCED_BREP_SHAPE_REPRESENTATION('',(#14),#716);
#13=STYLED_ITEM('',(#734),#14);
#14=MANIFOLD_SOLID_BREP('Bry\X2\0142\X0\a1',#443);
#15=FACE_OUTER_BOUND('',#37,.T.);
#16=FACE_OUTER_BOUND('',#38,.T.);
#17=FACE_OUTER_BOUND('',#39,.T.);
#18=FACE_OUTER_BOUND('',#40,.T.);
#19=FACE_OUTER_BOUND('',#41,.T.);
#20=FACE_OUTER_BOUND('',#42,.T.);
#21=FACE_OUTER_BOUND('',#43,.T.);
#22=FACE_OUTER_BOUND('',#44,.T.);
#23=FACE_OUTER_BOUND('',#45,.T.);
#24=FACE_OUTER_BOUND('',#46,.T.);
#25=FACE_OUTER_BOUND('',#47,.T.);
#26=FACE_OUTER_BOUND('',#48,.T.);
#27=FACE_OUTER_BOUND('',#49,.T.);
#28=FACE_OUTER_BOUND('',#50,.T.);
#29=FACE_OUTER_BOUND('',#51,.T.);
#30=FACE_OUTER_BOUND('',#52,.T.);
#31=FACE_OUTER_BOUND('',#53,.T.);
#32=FACE_OUTER_BOUND('',#54,.T.);
#33=FACE_OUTER_BOUND('',#55,.T.);
#34=FACE_OUTER_BOUND('',#56,.T.);
#35=FACE_OUTER_BOUND('',#57,.T.);
#36=FACE_OUTER_BOUND('',#58,.T.);
#37=EDGE_LOOP('',(#279,#280,#281,#282));
#38=EDGE_LOOP('',(#283,#284,#285,#286));
#39=EDGE_LOOP('',(#287,#288,#289,#290));
#40=EDGE_LOOP('',(#291,#292,#293,#294));
#41=EDGE_LOOP('',(#295,#296,#297,#298));
#42=EDGE_LOOP('',(#299,#300,#301,#302));
#43=EDGE_LOOP('',(#303,#304,#305,#306));
#44=EDGE_LOOP('',(#307,#308,#309,#310));
#45=EDGE_LOOP('',(#311,#312,#313,#314));
#46=EDGE_LOOP('',(#315,#316,#317,#318));
#47=EDGE_LOOP('',(#319,#320,#321,#322));
#48=EDGE_LOOP('',(#323,#324,#325,#326));
#49=EDGE_LOOP('',(#327,#328,#329,#330));
#50=EDGE_LOOP('',(#331,#332,#333,#334));
#51=EDGE_LOOP('',(#335,#336,#337,#338));
#52=EDGE_LOOP('',(#339,#340,#341,#342));
#53=EDGE_LOOP('',(#343,#344,#345,#346));
#54=EDGE_LOOP('',(#347,#348,#349,#350));
#55=EDGE_LOOP('',(#351,#352,#353,#354));
#56=EDGE_LOOP('',(#355,#356,#357,#358));
#57=EDGE_LOOP('',(#359,#360,#361,#362,#363,#364,#365,#366,#367,#368,#369,
#370,#371,#372,#373,#374,#375,#376,#377,#378));
#58=EDGE_LOOP('',(#379,#380,#381,#382,#383,#384,#385,#386,#387,#388,#389,
#390,#391,#392,#393,#394,#395,#396,#397,#398));
#59=LINE('',#595,#119);
#60=LINE('',#597,#120);
#61=LINE('',#599,#121);
#62=LINE('',#600,#122);
#63=LINE('',#603,#123);
#64=LINE('',#605,#124);
#65=LINE('',#606,#125);
#66=LINE('',#609,#126);
#67=LINE('',#611,#127);
#68=LINE('',#612,#128);
#69=LINE('',#615,#129);
#70=LINE('',#617,#130);
#71=LINE('',#618,#131);
#72=LINE('',#621,#132);
#73=LINE('',#623,#133);
#74=LINE('',#624,#134);
#75=LINE('',#627,#135);
#76=LINE('',#629,#136);
#77=LINE('',#630,#137);
#78=LINE('',#633,#138);
#79=LINE('',#635,#139);
#80=LINE('',#636,#140);
#81=LINE('',#639,#141);
#82=LINE('',#641,#142);
#83=LINE('',#642,#143);
#84=LINE('',#645,#144);
#85=LINE('',#647,#145);
#86=LINE('',#648,#146);
#87=LINE('',#651,#147);
#88=LINE('',#653,#148);
#89=LINE('',#654,#149);
#90=LINE('',#657,#150);
#91=LINE('',#659,#151);
#92=LINE('',#660,#152);
#93=LINE('',#663,#153);
#94=LINE('',#665,#154);
#95=LINE('',#666,#155);
#96=LINE('',#669,#156);
#97=LINE('',#671,#157);
#98=LINE('',#672,#158);
#99=LINE('',#675,#159);
#100=LINE('',#677,#160);
#101=LINE('',#678,#161);
#102=LINE('',#681,#162);
#103=LINE('',#683,#163);
#104=LINE('',#684,#164);
#105=LINE('',#687,#165);
#106=LINE('',#689,#166);
#107=LINE('',#690,#167);
#108=LINE('',#693,#168);
#109=LINE('',#695,#169);
#110=LINE('',#696,#170);
#111=LINE('',#699,#171);
#112=LINE('',#701,#172);
#113=LINE('',#702,#173);
#114=LINE('',#705,#174);
#115=LINE('',#707,#175);
#116=LINE('',#708,#176);
#117=LINE('',#710,#177);
#118=LINE('',#711,#178);
#119=VECTOR('',#489,13.4);
#120=VECTOR('',#490,100.);
#121=VECTOR('',#491,13.4);
#122=VECTOR('',#492,100.);
#123=VECTOR('',#495,5.7);
#124=VECTOR('',#496,100.);
#125=VECTOR('',#497,5.7);
#126=VECTOR('',#500,2.65000000000001);
#127=VECTOR('',#501,100.);
#128=VECTOR('',#502,2.65000000000001);
#129=VECTOR('',#505,4.3);
#130=VECTOR('',#506,100.);
#131=VECTOR('',#507,4.3);
#132=VECTOR('',#510,8.45);
#133=VECTOR('',#511,100.);
#134=VECTOR('',#512,8.45);
#135=VECTOR('',#515,5.);
#136=VECTOR('',#516,100.);
#137=VECTOR('',#517,5.);
#138=VECTOR('',#520,8.45);
#139=VECTOR('',#521,100.);
#140=VECTOR('',#522,8.45);
#141=VECTOR('',#525,4.3);
#142=VECTOR('',#526,100.);
#143=VECTOR('',#527,4.3);
#144=VECTOR('',#530,2.65);
#145=VECTOR('',#531,100.);
#146=VECTOR('',#532,2.65);
#147=VECTOR('',#535,5.69999999999999);
#148=VECTOR('',#536,100.);
#149=VECTOR('',#537,5.69999999999999);
#150=VECTOR('',#540,13.4);
#151=VECTOR('',#541,100.);
#152=VECTOR('',#542,13.4);
#153=VECTOR('',#545,5.69999999999999);
#154=VECTOR('',#546,100.);
#155=VECTOR('',#547,5.69999999999999);
#156=VECTOR('',#550,2.65000000000001);
#157=VECTOR('',#551,100.);
#158=VECTOR('',#552,2.65000000000001);
#159=VECTOR('',#555,4.3);
#160=VECTOR('',#556,100.);
#161=VECTOR('',#557,4.3);
#162=VECTOR('',#560,8.45);
#163=VECTOR('',#561,100.);
#164=VECTOR('',#562,8.45);
#165=VECTOR('',#565,5.);
#166=VECTOR('',#566,100.);
#167=VECTOR('',#567,5.);
#168=VECTOR('',#570,8.45);
#169=VECTOR('',#571,100.);
#170=VECTOR('',#572,8.45);
#171=VECTOR('',#575,4.3);
#172=VECTOR('',#576,100.);
#173=VECTOR('',#577,4.3);
#174=VECTOR('',#580,2.65);
#175=VECTOR('',#581,100.);
#176=VECTOR('',#582,2.65);
#177=VECTOR('',#585,5.7);
#178=VECTOR('',#586,5.7);
#179=VERTEX_POINT('',#593);
#180=VERTEX_POINT('',#594);
#181=VERTEX_POINT('',#596);
#182=VERTEX_POINT('',#598);
#183=VERTEX_POINT('',#602);
#184=VERTEX_POINT('',#604);
#185=VERTEX_POINT('',#608);
#186=VERTEX_POINT('',#610);
#187=VERTEX_POINT('',#614);
#188=VERTEX_POINT('',#616);
#189=VERTEX_POINT('',#620);
#190=VERTEX_POINT('',#622);
#191=VERTEX_POINT('',#626);
#192=VERTEX_POINT('',#628);
#193=VERTEX_POINT('',#632);
#194=VERTEX_POINT('',#634);
#195=VERTEX_POINT('',#638);
#196=VERTEX_POINT('',#640);
#197=VERTEX_POINT('',#644);
#198=VERTEX_POINT('',#646);
#199=VERTEX_POINT('',#650);
#200=VERTEX_POINT('',#652);
#201=VERTEX_POINT('',#656);
#202=VERTEX_POINT('',#658);
#203=VERTEX_POINT('',#662);
#204=VERTEX_POINT('',#664);
#205=VERTEX_POINT('',#668);
#206=VERTEX_POINT('',#670);
#207=VERTEX_POINT('',#674);
#208=VERTEX_POINT('',#676);
#209=VERTEX_POINT('',#680);
#210=VERTEX_POINT('',#682);
#211=VERTEX_POINT('',#686);
#212=VERTEX_POINT('',#688);
#213=VERTEX_POINT('',#692);
#214=VERTEX_POINT('',#694);
#215=VERTEX_POINT('',#698);
#216=VERTEX_POINT('',#700);
#217=VERTEX_POINT('',#704);
#218=VERTEX_POINT('',#706);
#219=EDGE_CURVE('',#179,#180,#59,.T.);
#220=EDGE_CURVE('',#181,#180,#60,.T.);
#221=EDGE_CURVE('',#182,#181,#61,.T.);
#222=EDGE_CURVE('',#182,#179,#62,.T.);
#223=EDGE_CURVE('',#180,#183,#63,.T.);
#224=EDGE_CURVE('',#184,#183,#64,.T.);
#225=EDGE_CURVE('',#181,#184,#65,.T.);
#226=EDGE_CURVE('',#183,#185,#66,.T.);
#227=EDGE_CURVE('',#186,#185,#67,.T.);
#228=EDGE_CURVE('',#184,#186,#68,.T.);
#229=EDGE_CURVE('',#185,#187,#69,.T.);
#230=EDGE_CURVE('',#188,#187,#70,.T.);
#231=EDGE_CURVE('',#186,#188,#71,.T.);
#232=EDGE_CURVE('',#187,#189,#72,.T.);
#233=EDGE_CURVE('',#190,#189,#73,.T.);
#234=EDGE_CURVE('',#188,#190,#74,.T.);
#235=EDGE_CURVE('',#189,#191,#75,.T.);
#236=EDGE_CURVE('',#192,#191,#76,.T.);
#237=EDGE_CURVE('',#190,#192,#77,.T.);
#238=EDGE_CURVE('',#191,#193,#78,.T.);
#239=EDGE_CURVE('',#194,#193,#79,.T.);
#240=EDGE_CURVE('',#192,#194,#80,.T.);
#241=EDGE_CURVE('',#193,#195,#81,.T.);
#242=EDGE_CURVE('',#196,#195,#82,.T.);
#243=EDGE_CURVE('',#194,#196,#83,.T.);
#244=EDGE_CURVE('',#195,#197,#84,.T.);
#245=EDGE_CURVE('',#198,#197,#85,.T.);
#246=EDGE_CURVE('',#196,#198,#86,.T.);
#247=EDGE_CURVE('',#197,#199,#87,.T.);
#248=EDGE_CURVE('',#200,#199,#88,.T.);
#249=EDGE_CURVE('',#198,#200,#89,.T.);
#250=EDGE_CURVE('',#199,#201,#90,.T.);
#251=EDGE_CURVE('',#202,#201,#91,.T.);
#252=EDGE_CURVE('',#200,#202,#92,.T.);
#253=EDGE_CURVE('',#201,#203,#93,.T.);
#254=EDGE_CURVE('',#204,#203,#94,.T.);
#255=EDGE_CURVE('',#202,#204,#95,.T.);
#256=EDGE_CURVE('',#203,#205,#96,.T.);
#257=EDGE_CURVE('',#206,#205,#97,.T.);
#258=EDGE_CURVE('',#204,#206,#98,.T.);
#259=EDGE_CURVE('',#205,#207,#99,.T.);
#260=EDGE_CURVE('',#208,#207,#100,.T.);
#261=EDGE_CURVE('',#206,#208,#101,.T.);
#262=EDGE_CURVE('',#207,#209,#102,.T.);
#263=EDGE_CURVE('',#210,#209,#103,.T.);
#264=EDGE_CURVE('',#208,#210,#104,.T.);
#265=EDGE_CURVE('',#209,#211,#105,.T.);
#266=EDGE_CURVE('',#212,#211,#106,.T.);
#267=EDGE_CURVE('',#210,#212,#107,.T.);
#268=EDGE_CURVE('',#211,#213,#108,.T.);
#269=EDGE_CURVE('',#214,#213,#109,.T.);
#270=EDGE_CURVE('',#212,#214,#110,.T.);
#271=EDGE_CURVE('',#213,#215,#111,.T.);
#272=EDGE_CURVE('',#216,#215,#112,.T.);
#273=EDGE_CURVE('',#214,#216,#113,.T.);
#274=EDGE_CURVE('',#215,#217,#114,.T.);
#275=EDGE_CURVE('',#218,#217,#115,.T.);
#276=EDGE_CURVE('',#216,#218,#116,.T.);
#277=EDGE_CURVE('',#217,#179,#117,.T.);
#278=EDGE_CURVE('',#218,#182,#118,.T.);
#279=ORIENTED_EDGE('',*,*,#219,.T.);
#280=ORIENTED_EDGE('',*,*,#220,.F.);
#281=ORIENTED_EDGE('',*,*,#221,.F.);
#282=ORIENTED_EDGE('',*,*,#222,.T.);
#283=ORIENTED_EDGE('',*,*,#223,.T.);
#284=ORIENTED_EDGE('',*,*,#224,.F.);
#285=ORIENTED_EDGE('',*,*,#225,.F.);
#286=ORIENTED_EDGE('',*,*,#220,.T.);
#287=ORIENTED_EDGE('',*,*,#226,.T.);
#288=ORIENTED_EDGE('',*,*,#227,.F.);
#289=ORIENTED_EDGE('',*,*,#228,.F.);
#290=ORIENTED_EDGE('',*,*,#224,.T.);
#291=ORIENTED_EDGE('',*,*,#229,.T.);
#292=ORIENTED_EDGE('',*,*,#230,.F.);
#293=ORIENTED_EDGE('',*,*,#231,.F.);
#294=ORIENTED_EDGE('',*,*,#227,.T.);
#295=ORIENTED_EDGE('',*,*,#232,.T.);
#296=ORIENTED_EDGE('',*,*,#233,.F.);
#297=ORIENTED_EDGE('',*,*,#234,.F.);
#298=ORIENTED_EDGE('',*,*,#230,.T.);
#299=ORIENTED_EDGE('',*,*,#235,.T.);
#300=ORIENTED_EDGE('',*,*,#236,.F.);
#301=ORIENTED_EDGE('',*,*,#237,.F.);
#302=ORIENTED_EDGE('',*,*,#233,.T.);
#303=ORIENTED_EDGE('',*,*,#238,.T.);
#304=ORIENTED_EDGE('',*,*,#239,.F.);
#305=ORIENTED_EDGE('',*,*,#240,.F.);
#306=ORIENTED_EDGE('',*,*,#236,.T.);
#307=ORIENTED_EDGE('',*,*,#241,.T.);
#308=ORIENTED_EDGE('',*,*,#242,.F.);
#309=ORIENTED_EDGE('',*,*,#243,.F.);
#310=ORIENTED_EDGE('',*,*,#239,.T.);
#311=ORIENTED_EDGE('',*,*,#244,.T.);
#312=ORIENTED_EDGE('',*,*,#245,.F.);
#313=ORIENTED_EDGE('',*,*,#246,.F.);
#314=ORIENTED_EDGE('',*,*,#242,.T.);
#315=ORIENTED_EDGE('',*,*,#247,.T.);
#316=ORIENTED_EDGE('',*,*,#248,.F.);
#317=ORIENTED_EDGE('',*,*,#249,.F.);
#318=ORIENTED_EDGE('',*,*,#245,.T.);
#319=ORIENTED_EDGE('',*,*,#250,.T.);
#320=ORIENTED_EDGE('',*,*,#251,.F.);
#321=ORIENTED_EDGE('',*,*,#252,.F.);
#322=ORIENTED_EDGE('',*,*,#248,.T.);
#323=ORIENTED_EDGE('',*,*,#253,.T.);
#324=ORIENTED_EDGE('',*,*,#254,.F.);
#325=ORIENTED_EDGE('',*,*,#255,.F.);
#326=ORIENTED_EDGE('',*,*,#251,.T.);
#327=ORIENTED_EDGE('',*,*,#256,.T.);
#328=ORIENTED_EDGE('',*,*,#257,.F.);
#329=ORIENTED_EDGE('',*,*,#258,.F.);
#330=ORIENTED_EDGE('',*,*,#254,.T.);
#331=ORIENTED_EDGE('',*,*,#259,.T.);
#332=ORIENTED_EDGE('',*,*,#260,.F.);
#333=ORIENTED_EDGE('',*,*,#261,.F.);
#334=ORIENTED_EDGE('',*,*,#257,.T.);
#335=ORIENTED_EDGE('',*,*,#262,.T.);
#336=ORIENTED_EDGE('',*,*,#263,.F.);
#337=ORIENTED_EDGE('',*,*,#264,.F.);
#338=ORIENTED_EDGE('',*,*,#260,.T.);
#339=ORIENTED_EDGE('',*,*,#265,.T.);
#340=ORIENTED_EDGE('',*,*,#266,.F.);
#341=ORIENTED_EDGE('',*,*,#267,.F.);
#342=ORIENTED_EDGE('',*,*,#263,.T.);
#343=ORIENTED_EDGE('',*,*,#268,.T.);
#344=ORIENTED_EDGE('',*,*,#269,.F.);
#345=ORIENTED_EDGE('',*,*,#270,.F.);
#346=ORIENTED_EDGE('',*,*,#266,.T.);
#347=ORIENTED_EDGE('',*,*,#271,.T.);
#348=ORIENTED_EDGE('',*,*,#272,.F.);
#349=ORIENTED_EDGE('',*,*,#273,.F.);
#350=ORIENTED_EDGE('',*,*,#269,.T.);
#351=ORIENTED_EDGE('',*,*,#274,.T.);
#352=ORIENTED_EDGE('',*,*,#275,.F.);
#353=ORIENTED_EDGE('',*,*,#276,.F.);
#354=ORIENTED_EDGE('',*,*,#272,.T.);
#355=ORIENTED_EDGE('',*,*,#277,.T.);
#356=ORIENTED_EDGE('',*,*,#222,.F.);
#357=ORIENTED_EDGE('',*,*,#278,.F.);
#358=ORIENTED_EDGE('',*,*,#275,.T.);
#359=ORIENTED_EDGE('',*,*,#250,.F.);
#360=ORIENTED_EDGE('',*,*,#247,.F.);
#361=ORIENTED_EDGE('',*,*,#244,.F.);
#362=ORIENTED_EDGE('',*,*,#241,.F.);
#363=ORIENTED_EDGE('',*,*,#238,.F.);
#364=ORIENTED_EDGE('',*,*,#235,.F.);
#365=ORIENTED_EDGE('',*,*,#232,.F.);
#366=ORIENTED_EDGE('',*,*,#229,.F.);
#367=ORIENTED_EDGE('',*,*,#226,.F.);
#368=ORIENTED_EDGE('',*,*,#223,.F.);
#369=ORIENTED_EDGE('',*,*,#219,.F.);
#370=ORIENTED_EDGE('',*,*,#277,.F.);
#371=ORIENTED_EDGE('',*,*,#274,.F.);
#372=ORIENTED_EDGE('',*,*,#271,.F.);
#373=ORIENTED_EDGE('',*,*,#268,.F.);
#374=ORIENTED_EDGE('',*,*,#265,.F.);
#375=ORIENTED_EDGE('',*,*,#262,.F.);
#376=ORIENTED_EDGE('',*,*,#259,.F.);
#377=ORIENTED_EDGE('',*,*,#256,.F.);
#378=ORIENTED_EDGE('',*,*,#253,.F.);
#379=ORIENTED_EDGE('',*,*,#252,.T.);
#380=ORIENTED_EDGE('',*,*,#255,.T.);
#381=ORIENTED_EDGE('',*,*,#258,.T.);
#382=ORIENTED_EDGE('',*,*,#261,.T.);
#383=ORIENTED_EDGE('',*,*,#264,.T.);
#384=ORIENTED_EDGE('',*,*,#267,.T.);
#385=ORIENTED_EDGE('',*,*,#270,.T.);
#386=ORIENTED_EDGE('',*,*,#273,.T.);
#387=ORIENTED_EDGE('',*,*,#276,.T.);
#388=ORIENTED_EDGE('',*,*,#278,.T.);
#389=ORIENTED_EDGE('',*,*,#221,.T.);
#390=ORIENTED_EDGE('',*,*,#225,.T.);
#391=ORIENTED_EDGE('',*,*,#228,.T.);
#392=ORIENTED_EDGE('',*,*,#231,.T.);
#393=ORIENTED_EDGE('',*,*,#234,.T.);
#394=ORIENTED_EDGE('',*,*,#237,.T.);
#395=ORIENTED_EDGE('',*,*,#240,.T.);
#396=ORIENTED_EDGE('',*,*,#243,.T.);
#397=ORIENTED_EDGE('',*,*,#246,.T.);
#398=ORIENTED_EDGE('',*,*,#249,.T.);
#399=PLANE('',#463);
#400=PLANE('',#464);
#401=PLANE('',#465);
#402=PLANE('',#466);
#403=PLANE('',#467);
#404=PLANE('',#468);
#405=PLANE('',#469);
#406=PLANE('',#470);
#407=PLANE('',#471);
#408=PLANE('',#472);
#409=PLANE('',#473);
#410=PLANE('',#474);
#411=PLANE('',#475);
#412=PLANE('',#476);
#413=PLANE('',#477);
#414=PLANE('',#478);
#415=PLANE('',#479);
#416=PLANE('',#480);
#417=PLANE('',#481);
#418=PLANE('',#482);
#419=PLANE('',#483);
#420=PLANE('',#484);
#421=ADVANCED_FACE('',(#15),#399,.T.);
#422=ADVANCED_FACE('',(#16),#400,.T.);
#423=ADVANCED_FACE('',(#17),#401,.T.);
#424=ADVANCED_FACE('',(#18),#402,.T.);
#425=ADVANCED_FACE('',(#19),#403,.T.);
#426=ADVANCED_FACE('',(#20),#404,.T.);
#427=ADVANCED_FACE('',(#21),#405,.T.);
#428=ADVANCED_FACE('',(#22),#406,.T.);
#429=ADVANCED_FACE('',(#23),#407,.T.);
#430=ADVANCED_FACE('',(#24),#408,.T.);
#431=ADVANCED_FACE('',(#25),#409,.T.);
#432=ADVANCED_FACE('',(#26),#410,.T.);
#433=ADVANCED_FACE('',(#27),#411,.T.);
#434=ADVANCED_FACE('',(#28),#412,.T.);
#435=ADVANCED_FACE('',(#29),#413,.T.);
#436=ADVANCED_FACE('',(#30),#414,.T.);
#437=ADVANCED_FACE('',(#31),#415,.T.);
#438=ADVANCED_FACE('',(#32),#416,.T.);
#439=ADVANCED_FACE('',(#33),#417,.T.);
#440=ADVANCED_FACE('',(#34),#418,.T.);
#441=ADVANCED_FACE('',(#35),#419,.T.);
#442=ADVANCED_FACE('',(#36),#420,.F.);
#443=CLOSED_SHELL('',(#421,#422,#423,#424,#425,#426,#427,#428,#429,#430,
#431,#432,#433,#434,#435,#436,#437,#438,#439,#440,#441,#442));
#444=DERIVED_UNIT_ELEMENT(#446,1.);
#445=DERIVED_UNIT_ELEMENT(#719,3.);
#446=(
MASS_UNIT()
NAMED_UNIT(*)
SI_UNIT($,.GRAM.)
);
#447=DERIVED_UNIT((#444,#445));
#448=MEASURE_REPRESENTATION_ITEM('density measure',
POSITIVE_RATIO_MEASURE(1.),#447);
#449=PROPERTY_DEFINITION_REPRESENTATION(#454,#451);
#450=PROPERTY_DEFINITION_REPRESENTATION(#455,#452);
#451=REPRESENTATION('material name',(#453),#716);
#452=REPRESENTATION('density',(#448),#716);
#453=DESCRIPTIVE_REPRESENTATION_ITEM('Generic','Generic');
#454=PROPERTY_DEFINITION('material property','material name',#726);
#455=PROPERTY_DEFINITION('material property','density of part',#726);
#456=DATE_TIME_ROLE('creation_date');
#457=CC_DESIGN_DATE_AND_TIME_ASSIGNMENT(#458,#456,(#726));
#458=DATE_AND_TIME(#459,#460);
#459=CALENDAR_DATE(2014,19,8);
#460=LOCAL_TIME(9,7,50.,#461);
#461=COORDINATED_UNIVERSAL_TIME_OFFSET(0,0,.BEHIND.);
#462=AXIS2_PLACEMENT_3D('placement',#591,#485,#486);
#463=AXIS2_PLACEMENT_3D('',#592,#487,#488);
#464=AXIS2_PLACEMENT_3D('',#601,#493,#494);
#465=AXIS2_PLACEMENT_3D('',#607,#498,#499);
#466=AXIS2_PLACEMENT_3D('',#613,#503,#504);
#467=AXIS2_PLACEMENT_3D('',#619,#508,#509);
#468=AXIS2_PLACEMENT_3D('',#625,#513,#514);
#469=AXIS2_PLACEMENT_3D('',#631,#518,#519);
#470=AXIS2_PLACEMENT_3D('',#637,#523,#524);
#471=AXIS2_PLACEMENT_3D('',#643,#528,#529);
#472=AXIS2_PLACEMENT_3D('',#649,#533,#534);
#473=AXIS2_PLACEMENT_3D('',#655,#538,#539);
#474=AXIS2_PLACEMENT_3D('',#661,#543,#544);
#475=AXIS2_PLACEMENT_3D('',#667,#548,#549);
#476=AXIS2_PLACEMENT_3D('',#673,#553,#554);
#477=AXIS2_PLACEMENT_3D('',#679,#558,#559);
#478=AXIS2_PLACEMENT_3D('',#685,#563,#564);
#479=AXIS2_PLACEMENT_3D('',#691,#568,#569);
#480=AXIS2_PLACEMENT_3D('',#697,#573,#574);
#481=AXIS2_PLACEMENT_3D('',#703,#578,#579);
#482=AXIS2_PLACEMENT_3D('',#709,#583,#584);
#483=AXIS2_PLACEMENT_3D('',#712,#587,#588);
#484=AXIS2_PLACEMENT_3D('',#713,#589,#590);
#485=DIRECTION('axis',(0.,0.,1.));
#486=DIRECTION('refdir',(1.,0.,0.));
#487=DIRECTION('center_axis',(0.,-1.,0.));
#488=DIRECTION('ref_axis',(0.,0.,-1.));
#489=DIRECTION('',(-1.,0.,0.));
#490=DIRECTION('',(0.,0.,1.));
#491=DIRECTION('',(-1.,0.,0.));
#492=DIRECTION('',(0.,0.,1.));
#493=DIRECTION('center_axis',(-1.,0.,0.));
#494=DIRECTION('ref_axis',(0.,0.,1.));
#495=DIRECTION('',(0.,1.,0.));
#496=DIRECTION('',(0.,0.,1.));
#497=DIRECTION('',(0.,1.,0.));
#498=DIRECTION('center_axis',(0.,1.,0.));
#499=DIRECTION('ref_axis',(0.,0.,1.));
#500=DIRECTION('',(1.,0.,0.));
#501=DIRECTION('',(0.,0.,1.));
#502=DIRECTION('',(1.,0.,0.));
#503=DIRECTION('center_axis',(-1.,0.,0.));
#504=DIRECTION('ref_axis',(0.,0.,1.));
#505=DIRECTION('',(0.,1.,0.));
#506=DIRECTION('',(0.,0.,1.));
#507=DIRECTION('',(0.,1.,0.));
#508=DIRECTION('center_axis',(1.97081010288489E-16,-1.,0.));
#509=DIRECTION('ref_axis',(0.,0.,-1.));
#510=DIRECTION('',(-1.,-1.97081010288489E-16,0.));
#511=DIRECTION('',(0.,0.,1.));
#512=DIRECTION('',(-1.,-1.97081010288489E-16,0.));
#513=DIRECTION('center_axis',(-1.,0.,0.));
#514=DIRECTION('ref_axis',(0.,0.,1.));
#515=DIRECTION('',(0.,1.,0.));
#516=DIRECTION('',(0.,0.,1.));
#517=DIRECTION('',(0.,1.,0.));
#518=DIRECTION('center_axis',(-1.31387340192326E-16,1.,0.));
#519=DIRECTION('ref_axis',(0.,0.,1.));
#520=DIRECTION('',(1.,1.31387340192326E-16,0.));
#521=DIRECTION('',(0.,0.,1.));
#522=DIRECTION('',(1.,1.31387340192326E-16,0.));
#523=DIRECTION('center_axis',(-1.,-2.58191401075618E-16,0.));
#524=DIRECTION('ref_axis',(0.,0.,1.));
#525=DIRECTION('',(-2.58191401075618E-16,1.,0.));
#526=DIRECTION('',(0.,0.,1.));
#527=DIRECTION('',(-2.58191401075618E-16,1.,0.));
#528=DIRECTION('center_axis',(0.,-1.,0.));
#529=DIRECTION('ref_axis',(0.,0.,-1.));
#530=DIRECTION('',(-1.,0.,0.));
#531=DIRECTION('',(0.,0.,1.));
#532=DIRECTION('',(-1.,0.,0.));
#533=DIRECTION('center_axis',(-1.,0.,0.));
#534=DIRECTION('ref_axis',(0.,0.,1.));
#535=DIRECTION('',(0.,1.,0.));
#536=DIRECTION('',(0.,0.,1.));
#537=DIRECTION('',(0.,1.,0.));
#538=DIRECTION('center_axis',(0.,1.,0.));
#539=DIRECTION('ref_axis',(0.,0.,1.));
#540=DIRECTION('',(1.,0.,0.));
#541=DIRECTION('',(0.,0.,1.));
#542=DIRECTION('',(1.,0.,0.));
#543=DIRECTION('center_axis',(1.,1.94775969232484E-16,0.));
#544=DIRECTION('ref_axis',(0.,0.,-1.));
#545=DIRECTION('',(1.94775969232484E-16,-1.,0.));
#546=DIRECTION('',(0.,0.,1.));
#547=DIRECTION('',(1.94775969232484E-16,-1.,0.));
#548=DIRECTION('center_axis',(0.,-1.,0.));
#549=DIRECTION('ref_axis',(0.,0.,-1.));
#550=DIRECTION('',(-1.,0.,0.));
#551=DIRECTION('',(0.,0.,1.));
#552=DIRECTION('',(-1.,0.,0.));
#553=DIRECTION('center_axis',(1.,0.,0.));
#554=DIRECTION('ref_axis',(0.,0.,-1.));
#555=DIRECTION('',(0.,-1.,0.));
#556=DIRECTION('',(0.,0.,1.));
#557=DIRECTION('',(0.,-1.,0.));
#558=DIRECTION('center_axis',(-1.31387340192326E-16,1.,0.));
#559=DIRECTION('ref_axis',(0.,0.,1.));
#560=DIRECTION('',(1.,1.31387340192326E-16,0.));
#561=DIRECTION('',(0.,0.,1.));
#562=DIRECTION('',(1.,1.31387340192326E-16,0.));
#563=DIRECTION('center_axis',(1.,0.,0.));
#564=DIRECTION('ref_axis',(0.,0.,-1.));
#565=DIRECTION('',(0.,-1.,0.));
#566=DIRECTION('',(0.,0.,1.));
#567=DIRECTION('',(0.,-1.,0.));
#568=DIRECTION('center_axis',(2.62774680384652E-16,-1.,0.));
#569=DIRECTION('ref_axis',(0.,0.,-1.));
#570=DIRECTION('',(-1.,-2.62774680384652E-16,0.));
#571=DIRECTION('',(0.,0.,1.));
#572=DIRECTION('',(-1.,-2.62774680384652E-16,0.));
#573=DIRECTION('center_axis',(1.,1.29095700537809E-16,0.));
#574=DIRECTION('ref_axis',(0.,0.,-1.));
#575=DIRECTION('',(1.29095700537809E-16,-1.,0.));
#576=DIRECTION('',(0.,0.,1.));
#577=DIRECTION('',(1.29095700537809E-16,-1.,0.));
#578=DIRECTION('center_axis',(0.,1.,0.));
#579=DIRECTION('ref_axis',(0.,0.,1.));
#580=DIRECTION('',(1.,0.,0.));
#581=DIRECTION('',(0.,0.,1.));
#582=DIRECTION('',(1.,0.,0.));
#583=DIRECTION('center_axis',(1.,0.,0.));
#584=DIRECTION('ref_axis',(0.,0.,-1.));
#585=DIRECTION('',(0.,-1.,0.));
#586=DIRECTION('',(0.,-1.,0.));
#587=DIRECTION('center_axis',(0.,0.,1.));
#588=DIRECTION('ref_axis',(1.,0.,0.));
#589=DIRECTION('center_axis',(0.,0.,1.));
#590=DIRECTION('ref_axis',(1.,0.,0.));
#591=CARTESIAN_POINT('',(0.,0.,0.));
#592=CARTESIAN_POINT('Origin',(6.7,-12.5,0.));
#593=CARTESIAN_POINT('',(6.7,-12.5,100.));
#594=CARTESIAN_POINT('',(-6.7,-12.5,100.));
#595=CARTESIAN_POINT('',(3.35,-12.5,100.));
#596=CARTESIAN_POINT('',(-6.7,-12.5,0.));
#597=CARTESIAN_POINT('',(-6.7,-12.5,0.));
#598=CARTESIAN_POINT('',(6.7,-12.5,0.));
#599=CARTESIAN_POINT('',(3.35,-12.5,0.));
#600=CARTESIAN_POINT('',(6.7,-12.5,0.));
#601=CARTESIAN_POINT('Origin',(-6.7,-12.5,0.));
#602=CARTESIAN_POINT('',(-6.7,-6.8,100.));
#603=CARTESIAN_POINT('',(-6.7,-6.25,100.));
#604=CARTESIAN_POINT('',(-6.7,-6.8,0.));
#605=CARTESIAN_POINT('',(-6.7,-6.8,0.));
#606=CARTESIAN_POINT('',(-6.7,-6.25,0.));
#607=CARTESIAN_POINT('Origin',(-6.7,-6.8,0.));
#608=CARTESIAN_POINT('',(-4.05,-6.8,100.));
#609=CARTESIAN_POINT('',(-3.35,-6.8,100.));
#610=CARTESIAN_POINT('',(-4.05,-6.8,0.));
#611=CARTESIAN_POINT('',(-4.05,-6.8,0.));
#612=CARTESIAN_POINT('',(-3.35,-6.8,0.));
#613=CARTESIAN_POINT('Origin',(-4.05,-6.8,0.));
#614=CARTESIAN_POINT('',(-4.05,-2.5,100.));
#615=CARTESIAN_POINT('',(-4.05,-3.4,100.));
#616=CARTESIAN_POINT('',(-4.05,-2.5,0.));
#617=CARTESIAN_POINT('',(-4.05,-2.5,0.));
#618=CARTESIAN_POINT('',(-4.05,-3.4,0.));
#619=CARTESIAN_POINT('Origin',(-4.05,-2.5,0.));
#620=CARTESIAN_POINT('',(-12.5,-2.5,100.));
#621=CARTESIAN_POINT('',(-2.025,-2.5,100.));
#622=CARTESIAN_POINT('',(-12.5,-2.5,0.));
#623=CARTESIAN_POINT('',(-12.5,-2.5,0.));
#624=CARTESIAN_POINT('',(-2.025,-2.5,0.));
#625=CARTESIAN_POINT('Origin',(-12.5,-2.5,0.));
#626=CARTESIAN_POINT('',(-12.5,2.5,100.));
#627=CARTESIAN_POINT('',(-12.5,-1.25,100.));
#628=CARTESIAN_POINT('',(-12.5,2.5,0.));
#629=CARTESIAN_POINT('',(-12.5,2.5,0.));
#630=CARTESIAN_POINT('',(-12.5,-1.25,0.));
#631=CARTESIAN_POINT('Origin',(-12.5,2.5,0.));
#632=CARTESIAN_POINT('',(-4.05,2.5,100.));
#633=CARTESIAN_POINT('',(-6.25,2.5,100.));
#634=CARTESIAN_POINT('',(-4.05,2.5,0.));
#635=CARTESIAN_POINT('',(-4.05,2.5,0.));
#636=CARTESIAN_POINT('',(-6.25,2.5,0.));
#637=CARTESIAN_POINT('Origin',(-4.05,2.5,0.));
#638=CARTESIAN_POINT('',(-4.05,6.8,100.));
#639=CARTESIAN_POINT('',(-4.05,1.25,100.));
#640=CARTESIAN_POINT('',(-4.05,6.8,0.));
#641=CARTESIAN_POINT('',(-4.05,6.8,0.));
#642=CARTESIAN_POINT('',(-4.05,1.25,0.));
#643=CARTESIAN_POINT('Origin',(-4.05,6.8,0.));
#644=CARTESIAN_POINT('',(-6.7,6.8,100.));
#645=CARTESIAN_POINT('',(-2.025,6.8,100.));
#646=CARTESIAN_POINT('',(-6.7,6.8,0.));
#647=CARTESIAN_POINT('',(-6.7,6.8,0.));
#648=CARTESIAN_POINT('',(-2.025,6.8,0.));
#649=CARTESIAN_POINT('Origin',(-6.7,6.8,0.));
#650=CARTESIAN_POINT('',(-6.7,12.5,100.));
#651=CARTESIAN_POINT('',(-6.7,3.4,100.));
#652=CARTESIAN_POINT('',(-6.7,12.5,0.));
#653=CARTESIAN_POINT('',(-6.7,12.5,0.));
#654=CARTESIAN_POINT('',(-6.7,3.4,0.));
#655=CARTESIAN_POINT('Origin',(-6.7,12.5,0.));
#656=CARTESIAN_POINT('',(6.7,12.5,100.));
#657=CARTESIAN_POINT('',(-3.35,12.5,100.));
#658=CARTESIAN_POINT('',(6.7,12.5,0.));
#659=CARTESIAN_POINT('',(6.7,12.5,0.));
#660=CARTESIAN_POINT('',(-3.35,12.5,0.));
#661=CARTESIAN_POINT('Origin',(6.7,12.5,0.));
#662=CARTESIAN_POINT('',(6.7,6.8,100.));
#663=CARTESIAN_POINT('',(6.7,6.24999999999999,100.));
#664=CARTESIAN_POINT('',(6.7,6.8,0.));
#665=CARTESIAN_POINT('',(6.7,6.8,0.));
#666=CARTESIAN_POINT('',(6.7,6.24999999999999,0.));
#667=CARTESIAN_POINT('Origin',(6.7,6.8,0.));
#668=CARTESIAN_POINT('',(4.05,6.8,100.));
#669=CARTESIAN_POINT('',(3.35,6.8,100.));
#670=CARTESIAN_POINT('',(4.05,6.8,0.));
#671=CARTESIAN_POINT('',(4.05,6.8,0.));
#672=CARTESIAN_POINT('',(3.35,6.8,0.));
#673=CARTESIAN_POINT('Origin',(4.05,6.8,0.));
#674=CARTESIAN_POINT('',(4.05,2.5,100.));
#675=CARTESIAN_POINT('',(4.05,3.4,100.));
#676=CARTESIAN_POINT('',(4.05,2.5,0.));
#677=CARTESIAN_POINT('',(4.05,2.5,0.));
#678=CARTESIAN_POINT('',(4.05,3.4,0.));
#679=CARTESIAN_POINT('Origin',(4.05,2.5,0.));
#680=CARTESIAN_POINT('',(12.5,2.5,100.));
#681=CARTESIAN_POINT('',(2.025,2.5,100.));
#682=CARTESIAN_POINT('',(12.5,2.5,0.));
#683=CARTESIAN_POINT('',(12.5,2.5,0.));
#684=CARTESIAN_POINT('',(2.025,2.5,0.));
#685=CARTESIAN_POINT('Origin',(12.5,2.5,0.));
#686=CARTESIAN_POINT('',(12.5,-2.5,100.));
#687=CARTESIAN_POINT('',(12.5,1.25,100.));
#688=CARTESIAN_POINT('',(12.5,-2.5,0.));
#689=CARTESIAN_POINT('',(12.5,-2.5,0.));
#690=CARTESIAN_POINT('',(12.5,1.25,0.));
#691=CARTESIAN_POINT('Origin',(12.5,-2.5,0.));
#692=CARTESIAN_POINT('',(4.05,-2.5,100.));
#693=CARTESIAN_POINT('',(6.25,-2.5,100.));
#694=CARTESIAN_POINT('',(4.05,-2.5,0.));
#695=CARTESIAN_POINT('',(4.05,-2.5,0.));
#696=CARTESIAN_POINT('',(6.25,-2.5,0.));
#697=CARTESIAN_POINT('Origin',(4.05,-2.5,0.));
#698=CARTESIAN_POINT('',(4.05,-6.8,100.));
#699=CARTESIAN_POINT('',(4.05,-1.25,100.));
#700=CARTESIAN_POINT('',(4.05,-6.8,0.));
#701=CARTESIAN_POINT('',(4.05,-6.8,0.));
#702=CARTESIAN_POINT('',(4.05,-1.25,0.));
#703=CARTESIAN_POINT('Origin',(4.05,-6.8,0.));
#704=CARTESIAN_POINT('',(6.7,-6.8,100.));
#705=CARTESIAN_POINT('',(2.025,-6.8,100.));
#706=CARTESIAN_POINT('',(6.7,-6.8,0.));
#707=CARTESIAN_POINT('',(6.7,-6.8,0.));
#708=CARTESIAN_POINT('',(2.025,-6.8,0.));
#709=CARTESIAN_POINT('Origin',(6.7,-6.8,0.));
#710=CARTESIAN_POINT('',(6.7,-3.4,100.));
#711=CARTESIAN_POINT('',(6.7,-3.4,0.));
#712=CARTESIAN_POINT('Origin',(0.,-4.44089209850063E-15,100.));
#713=CARTESIAN_POINT('Origin',(0.,-4.44089209850063E-15,0.));
#714=UNCERTAINTY_MEASURE_WITH_UNIT(LENGTH_MEASURE(0.01),#718,
'DISTANCE_ACCURACY_VALUE',
'Maximum model space distance between geometric entities at asserted c
onnectivities');
#715=UNCERTAINTY_MEASURE_WITH_UNIT(LENGTH_MEASURE(0.01),#718,
'DISTANCE_ACCURACY_VALUE',
'Maximum model space distance between geometric entities at asserted c
onnectivities');
#716=(
GEOMETRIC_REPRESENTATION_CONTEXT(3)
GLOBAL_UNCERTAINTY_ASSIGNED_CONTEXT((#714))
GLOBAL_UNIT_ASSIGNED_CONTEXT((#718,#720,#721))
REPRESENTATION_CONTEXT('','3D')
);
#717=(
GEOMETRIC_REPRESENTATION_CONTEXT(3)
GLOBAL_UNCERTAINTY_ASSIGNED_CONTEXT((#715))
GLOBAL_UNIT_ASSIGNED_CONTEXT((#718,#720,#721))
REPRESENTATION_CONTEXT('','3D')
);
#718=(
LENGTH_UNIT()
NAMED_UNIT(*)
SI_UNIT(.MILLI.,.METRE.)
);
#719=(
LENGTH_UNIT()
NAMED_UNIT(*)
SI_UNIT(.CENTI.,.METRE.)
);
#720=(
NAMED_UNIT(*)
PLANE_ANGLE_UNIT()
SI_UNIT($,.RADIAN.)
);
#721=(
NAMED_UNIT(*)
SI_UNIT($,.STERADIAN.)
SOLID_ANGLE_UNIT()
);
#722=SHAPE_DEFINITION_REPRESENTATION(#723,#724);
#723=PRODUCT_DEFINITION_SHAPE('',$,#726);
#724=SHAPE_REPRESENTATION('',(#462),#716);
#725=DESIGN_CONTEXT('part definition',#730,'design');
#726=PRODUCT_DEFINITION('700500','700500',#727,#725);
#727=PRODUCT_DEFINITION_FORMATION('',$,#732);
#728=PRODUCT_RELATED_PRODUCT_CATEGORY('700500','700500',(#732));
#729=APPLICATION_PROTOCOL_DEFINITION('international standard',
'ap203_configuration_controlled_3d_design_of_mechanical_parts_and_asse
mblies_mim_lf',2004,#730);
#730=APPLICATION_CONTEXT(
'Configuration Controlled 3D Design of Mechanical Parts and Assemblies');
#731=MECHANICAL_CONTEXT('part definition',#730,'mechanical');
#732=PRODUCT('700500','700500',$,(#731));
#733=PRESENTATION_STYLE_ASSIGNMENT((#735));
#734=PRESENTATION_STYLE_ASSIGNMENT((#736));
#735=SURFACE_STYLE_USAGE(.BOTH.,#741);
#736=SURFACE_STYLE_USAGE(.BOTH.,#742);
#737=SURFACE_STYLE_RENDERING_WITH_PROPERTIES($,#749,(#739));
#738=SURFACE_STYLE_RENDERING_WITH_PROPERTIES($,#750,(#740));
#739=SURFACE_STYLE_TRANSPARENT(0.);
#740=SURFACE_STYLE_TRANSPARENT(0.);
#741=SURFACE_SIDE_STYLE('',(#743,#737));
#742=SURFACE_SIDE_STYLE('',(#744,#738));
#743=SURFACE_STYLE_FILL_AREA(#745);
#744=SURFACE_STYLE_FILL_AREA(#746);
#745=FILL_AREA_STYLE('',(#747));
#746=FILL_AREA_STYLE('',(#748));
#747=FILL_AREA_STYLE_COLOUR('',#749);
#748=FILL_AREA_STYLE_COLOUR('',#750);
#749=COLOUR_RGB('',0.749019607843137,0.749019607843137,0.749019607843137);
#750=COLOUR_RGB('',0.529411764705882,0.529411764705882,0.529411764705882);
ENDSEC;
END-ISO-10303-21;
