ISO-10303-21;
HEADER;
/* Generated by software containing ST-Developer
 * from STEP Tools, Inc. (www.steptools.com) 
 */

FILE_DESCRIPTION(
/* description */ ('Kluzn\X\E1 li\X2\0161\X0\ta 2 m'),
/* implementation_level */ '2;1');

FILE_NAME(
/* name */ 'C:\\Vault_pracovn\X\ED\\Zak\X\E1zky\\Kal\X\E1b_pokus\\7000
24.stp',
/* time_stamp */ '2014-08-19T09:02:50+02:00',
/* author */ ('jank'),
/* organization */ (''),
/* preprocessor_version */ 'ST-DEVELOPER v15.2',
/* originating_system */ 'Autodesk Inventor 2014',
/* authorisation */ '');

FILE_SCHEMA (('CONFIG_CONTROL_DESIGN'));
ENDSEC;

DATA;
#10=SHAPE_REPRESENTATION_RELATIONSHIP('SRR','None',#651,#11);
#11=ADVANCED_BREP_SHAPE_REPRESENTATION($,(#388),#642);
#12=STYLED_ITEM($,(#659),#388);
#13=CIRCLE($,#392,2.5);
#14=CIRCLE($,#393,2.5);
#15=CIRCLE($,#396,2.5);
#16=CIRCLE($,#397,2.5);
#17=CIRCLE($,#401,2.5);
#18=CIRCLE($,#402,2.5);
#19=CIRCLE($,#405,2.5);
#20=CIRCLE($,#406,2.5);
#21=CIRCLE($,#413,2.5);
#22=CIRCLE($,#414,2.5);
#23=CIRCLE($,#417,2.5);
#24=CIRCLE($,#418,2.5);
#25=CYLINDRICAL_SURFACE($,#391,2.5);
#26=CYLINDRICAL_SURFACE($,#395,2.5);
#27=CYLINDRICAL_SURFACE($,#400,2.5);
#28=CYLINDRICAL_SURFACE($,#404,2.5);
#29=CYLINDRICAL_SURFACE($,#412,2.5);
#30=CYLINDRICAL_SURFACE($,#416,2.5);
#31=FACE_OUTER_BOUND($,#51,.T.);
#32=FACE_OUTER_BOUND($,#52,.T.);
#33=FACE_OUTER_BOUND($,#53,.T.);
#34=FACE_OUTER_BOUND($,#54,.T.);
#35=FACE_OUTER_BOUND($,#55,.T.);
#36=FACE_OUTER_BOUND($,#56,.T.);
#37=FACE_OUTER_BOUND($,#57,.T.);
#38=FACE_OUTER_BOUND($,#58,.T.);
#39=FACE_OUTER_BOUND($,#59,.T.);
#40=FACE_OUTER_BOUND($,#60,.T.);
#41=FACE_OUTER_BOUND($,#61,.T.);
#42=FACE_OUTER_BOUND($,#62,.T.);
#43=FACE_OUTER_BOUND($,#63,.T.);
#44=FACE_OUTER_BOUND($,#64,.T.);
#45=FACE_OUTER_BOUND($,#65,.T.);
#46=FACE_OUTER_BOUND($,#66,.T.);
#47=FACE_OUTER_BOUND($,#67,.T.);
#48=FACE_OUTER_BOUND($,#68,.T.);
#49=FACE_OUTER_BOUND($,#69,.T.);
#50=FACE_OUTER_BOUND($,#70,.T.);
#51=EDGE_LOOP($,(#245,#246,#247,#248));
#52=EDGE_LOOP($,(#249,#250,#251,#252));
#53=EDGE_LOOP($,(#253,#254,#255,#256));
#54=EDGE_LOOP($,(#257,#258,#259,#260));
#55=EDGE_LOOP($,(#261,#262,#263,#264));
#56=EDGE_LOOP($,(#265,#266,#267,#268));
#57=EDGE_LOOP($,(#269,#270,#271,#272));
#58=EDGE_LOOP($,(#273,#274,#275,#276));
#59=EDGE_LOOP($,(#277,#278,#279,#280));
#60=EDGE_LOOP($,(#281,#282,#283,#284));
#61=EDGE_LOOP($,(#285,#286,#287,#288));
#62=EDGE_LOOP($,(#289,#290,#291,#292));
#63=EDGE_LOOP($,(#293,#294,#295,#296));
#64=EDGE_LOOP($,(#297,#298,#299,#300));
#65=EDGE_LOOP($,(#301,#302,#303,#304));
#66=EDGE_LOOP($,(#305,#306,#307,#308));
#67=EDGE_LOOP($,(#309,#310,#311,#312));
#68=EDGE_LOOP($,(#313,#314,#315,#316));
#69=EDGE_LOOP($,(#317,#318,#319,#320,#321,#322,#323,#324,#325,#326,#327,
#328,#329,#330,#331,#332,#333,#334));
#70=EDGE_LOOP($,(#335,#336,#337,#338,#339,#340,#341,#342,#343,#344,#345,
#346,#347,#348,#349,#350,#351,#352));
#71=LINE($,#534,#113);
#72=LINE($,#536,#114);
#73=LINE($,#538,#115);
#74=LINE($,#539,#116);
#75=LINE($,#544,#117);
#76=LINE($,#548,#118);
#77=LINE($,#550,#119);
#78=LINE($,#551,#120);
#79=LINE($,#556,#121);
#80=LINE($,#560,#122);
#81=LINE($,#562,#123);
#82=LINE($,#563,#124);
#83=LINE($,#566,#125);
#84=LINE($,#568,#126);
#85=LINE($,#569,#127);
#86=LINE($,#574,#128);
#87=LINE($,#578,#129);
#88=LINE($,#580,#130);
#89=LINE($,#581,#131);
#90=LINE($,#586,#132);
#91=LINE($,#590,#133);
#92=LINE($,#592,#134);
#93=LINE($,#593,#135);
#94=LINE($,#596,#136);
#95=LINE($,#598,#137);
#96=LINE($,#599,#138);
#97=LINE($,#602,#139);
#98=LINE($,#604,#140);
#99=LINE($,#605,#141);
#100=LINE($,#608,#142);
#101=LINE($,#610,#143);
#102=LINE($,#611,#144);
#103=LINE($,#614,#145);
#104=LINE($,#616,#146);
#105=LINE($,#617,#147);
#106=LINE($,#622,#148);
#107=LINE($,#626,#149);
#108=LINE($,#628,#150);
#109=LINE($,#629,#151);
#110=LINE($,#634,#152);
#111=LINE($,#637,#153);
#112=LINE($,#638,#154);
#113=VECTOR($,#426,5.);
#114=VECTOR($,#427,100.);
#115=VECTOR($,#428,5.);
#116=VECTOR($,#429,100.);
#117=VECTOR($,#434,100.);
#118=VECTOR($,#439,13.5);
#119=VECTOR($,#440,100.);
#120=VECTOR($,#441,13.5);
#121=VECTOR($,#446,100.);
#122=VECTOR($,#451,5.);
#123=VECTOR($,#452,100.);
#124=VECTOR($,#453,5.);
#125=VECTOR($,#456,0.5);
#126=VECTOR($,#457,100.);
#127=VECTOR($,#458,0.5);
#128=VECTOR($,#463,100.);
#129=VECTOR($,#468,15.);
#130=VECTOR($,#469,100.);
#131=VECTOR($,#470,15.);
#132=VECTOR($,#475,100.);
#133=VECTOR($,#480,0.5);
#134=VECTOR($,#481,100.);
#135=VECTOR($,#482,0.5);
#136=VECTOR($,#485,7.5);
#137=VECTOR($,#486,100.);
#138=VECTOR($,#487,7.5);
#139=VECTOR($,#490,18.5);
#140=VECTOR($,#491,100.);
#141=VECTOR($,#492,18.5);
#142=VECTOR($,#495,7.49999999999999);
#143=VECTOR($,#496,100.);
#144=VECTOR($,#497,7.49999999999999);
#145=VECTOR($,#500,0.499999999999999);
#146=VECTOR($,#501,100.);
#147=VECTOR($,#502,0.499999999999999);
#148=VECTOR($,#507,100.);
#149=VECTOR($,#512,15.);
#150=VECTOR($,#513,100.);
#151=VECTOR($,#514,15.);
#152=VECTOR($,#519,100.);
#153=VECTOR($,#524,0.499999999999999);
#154=VECTOR($,#525,0.499999999999999);
#155=VERTEX_POINT($,#532);
#156=VERTEX_POINT($,#533);
#157=VERTEX_POINT($,#535);
#158=VERTEX_POINT($,#537);
#159=VERTEX_POINT($,#541);
#160=VERTEX_POINT($,#543);
#161=VERTEX_POINT($,#547);
#162=VERTEX_POINT($,#549);
#163=VERTEX_POINT($,#553);
#164=VERTEX_POINT($,#555);
#165=VERTEX_POINT($,#559);
#166=VERTEX_POINT($,#561);
#167=VERTEX_POINT($,#565);
#168=VERTEX_POINT($,#567);
#169=VERTEX_POINT($,#571);
#170=VERTEX_POINT($,#573);
#171=VERTEX_POINT($,#577);
#172=VERTEX_POINT($,#579);
#173=VERTEX_POINT($,#583);
#174=VERTEX_POINT($,#585);
#175=VERTEX_POINT($,#589);
#176=VERTEX_POINT($,#591);
#177=VERTEX_POINT($,#595);
#178=VERTEX_POINT($,#597);
#179=VERTEX_POINT($,#601);
#180=VERTEX_POINT($,#603);
#181=VERTEX_POINT($,#607);
#182=VERTEX_POINT($,#609);
#183=VERTEX_POINT($,#613);
#184=VERTEX_POINT($,#615);
#185=VERTEX_POINT($,#619);
#186=VERTEX_POINT($,#621);
#187=VERTEX_POINT($,#625);
#188=VERTEX_POINT($,#627);
#189=VERTEX_POINT($,#631);
#190=VERTEX_POINT($,#633);
#191=EDGE_CURVE($,#155,#156,#71,.T.);
#192=EDGE_CURVE($,#157,#156,#72,.T.);
#193=EDGE_CURVE($,#158,#157,#73,.T.);
#194=EDGE_CURVE($,#158,#155,#74,.T.);
#195=EDGE_CURVE($,#156,#159,#13,.T.);
#196=EDGE_CURVE($,#160,#159,#75,.T.);
#197=EDGE_CURVE($,#157,#160,#14,.T.);
#198=EDGE_CURVE($,#159,#161,#76,.T.);
#199=EDGE_CURVE($,#162,#161,#77,.T.);
#200=EDGE_CURVE($,#160,#162,#78,.T.);
#201=EDGE_CURVE($,#161,#163,#15,.T.);
#202=EDGE_CURVE($,#164,#163,#79,.T.);
#203=EDGE_CURVE($,#162,#164,#16,.T.);
#204=EDGE_CURVE($,#163,#165,#80,.T.);
#205=EDGE_CURVE($,#166,#165,#81,.T.);
#206=EDGE_CURVE($,#164,#166,#82,.T.);
#207=EDGE_CURVE($,#165,#167,#83,.T.);
#208=EDGE_CURVE($,#168,#167,#84,.T.);
#209=EDGE_CURVE($,#166,#168,#85,.T.);
#210=EDGE_CURVE($,#167,#169,#17,.T.);
#211=EDGE_CURVE($,#170,#169,#86,.T.);
#212=EDGE_CURVE($,#168,#170,#18,.T.);
#213=EDGE_CURVE($,#169,#171,#87,.T.);
#214=EDGE_CURVE($,#172,#171,#88,.T.);
#215=EDGE_CURVE($,#170,#172,#89,.T.);
#216=EDGE_CURVE($,#171,#173,#19,.T.);
#217=EDGE_CURVE($,#174,#173,#90,.T.);
#218=EDGE_CURVE($,#172,#174,#20,.T.);
#219=EDGE_CURVE($,#173,#175,#91,.T.);
#220=EDGE_CURVE($,#176,#175,#92,.T.);
#221=EDGE_CURVE($,#174,#176,#93,.T.);
#222=EDGE_CURVE($,#175,#177,#94,.T.);
#223=EDGE_CURVE($,#178,#177,#95,.T.);
#224=EDGE_CURVE($,#176,#178,#96,.T.);
#225=EDGE_CURVE($,#177,#179,#97,.T.);
#226=EDGE_CURVE($,#180,#179,#98,.T.);
#227=EDGE_CURVE($,#178,#180,#99,.T.);
#228=EDGE_CURVE($,#179,#181,#100,.T.);
#229=EDGE_CURVE($,#182,#181,#101,.T.);
#230=EDGE_CURVE($,#180,#182,#102,.T.);
#231=EDGE_CURVE($,#181,#183,#103,.T.);
#232=EDGE_CURVE($,#184,#183,#104,.T.);
#233=EDGE_CURVE($,#182,#184,#105,.T.);
#234=EDGE_CURVE($,#183,#185,#21,.T.);
#235=EDGE_CURVE($,#186,#185,#106,.T.);
#236=EDGE_CURVE($,#184,#186,#22,.T.);
#237=EDGE_CURVE($,#185,#187,#107,.T.);
#238=EDGE_CURVE($,#188,#187,#108,.T.);
#239=EDGE_CURVE($,#186,#188,#109,.T.);
#240=EDGE_CURVE($,#187,#189,#23,.T.);
#241=EDGE_CURVE($,#190,#189,#110,.T.);
#242=EDGE_CURVE($,#188,#190,#24,.T.);
#243=EDGE_CURVE($,#189,#155,#111,.T.);
#244=EDGE_CURVE($,#190,#158,#112,.T.);
#245=ORIENTED_EDGE($,*,*,#191,.T.);
#246=ORIENTED_EDGE($,*,*,#192,.F.);
#247=ORIENTED_EDGE($,*,*,#193,.F.);
#248=ORIENTED_EDGE($,*,*,#194,.T.);
#249=ORIENTED_EDGE($,*,*,#195,.T.);
#250=ORIENTED_EDGE($,*,*,#196,.F.);
#251=ORIENTED_EDGE($,*,*,#197,.F.);
#252=ORIENTED_EDGE($,*,*,#192,.T.);
#253=ORIENTED_EDGE($,*,*,#198,.T.);
#254=ORIENTED_EDGE($,*,*,#199,.F.);
#255=ORIENTED_EDGE($,*,*,#200,.F.);
#256=ORIENTED_EDGE($,*,*,#196,.T.);
#257=ORIENTED_EDGE($,*,*,#201,.T.);
#258=ORIENTED_EDGE($,*,*,#202,.F.);
#259=ORIENTED_EDGE($,*,*,#203,.F.);
#260=ORIENTED_EDGE($,*,*,#199,.T.);
#261=ORIENTED_EDGE($,*,*,#204,.T.);
#262=ORIENTED_EDGE($,*,*,#205,.F.);
#263=ORIENTED_EDGE($,*,*,#206,.F.);
#264=ORIENTED_EDGE($,*,*,#202,.T.);
#265=ORIENTED_EDGE($,*,*,#207,.T.);
#266=ORIENTED_EDGE($,*,*,#208,.F.);
#267=ORIENTED_EDGE($,*,*,#209,.F.);
#268=ORIENTED_EDGE($,*,*,#205,.T.);
#269=ORIENTED_EDGE($,*,*,#210,.T.);
#270=ORIENTED_EDGE($,*,*,#211,.F.);
#271=ORIENTED_EDGE($,*,*,#212,.F.);
#272=ORIENTED_EDGE($,*,*,#208,.T.);
#273=ORIENTED_EDGE($,*,*,#213,.T.);
#274=ORIENTED_EDGE($,*,*,#214,.F.);
#275=ORIENTED_EDGE($,*,*,#215,.F.);
#276=ORIENTED_EDGE($,*,*,#211,.T.);
#277=ORIENTED_EDGE($,*,*,#216,.T.);
#278=ORIENTED_EDGE($,*,*,#217,.F.);
#279=ORIENTED_EDGE($,*,*,#218,.F.);
#280=ORIENTED_EDGE($,*,*,#214,.T.);
#281=ORIENTED_EDGE($,*,*,#219,.T.);
#282=ORIENTED_EDGE($,*,*,#220,.F.);
#283=ORIENTED_EDGE($,*,*,#221,.F.);
#284=ORIENTED_EDGE($,*,*,#217,.T.);
#285=ORIENTED_EDGE($,*,*,#222,.T.);
#286=ORIENTED_EDGE($,*,*,#223,.F.);
#287=ORIENTED_EDGE($,*,*,#224,.F.);
#288=ORIENTED_EDGE($,*,*,#220,.T.);
#289=ORIENTED_EDGE($,*,*,#225,.T.);
#290=ORIENTED_EDGE($,*,*,#226,.F.);
#291=ORIENTED_EDGE($,*,*,#227,.F.);
#292=ORIENTED_EDGE($,*,*,#223,.T.);
#293=ORIENTED_EDGE($,*,*,#228,.T.);
#294=ORIENTED_EDGE($,*,*,#229,.F.);
#295=ORIENTED_EDGE($,*,*,#230,.F.);
#296=ORIENTED_EDGE($,*,*,#226,.T.);
#297=ORIENTED_EDGE($,*,*,#231,.T.);
#298=ORIENTED_EDGE($,*,*,#232,.F.);
#299=ORIENTED_EDGE($,*,*,#233,.F.);
#300=ORIENTED_EDGE($,*,*,#229,.T.);
#301=ORIENTED_EDGE($,*,*,#234,.T.);
#302=ORIENTED_EDGE($,*,*,#235,.F.);
#303=ORIENTED_EDGE($,*,*,#236,.F.);
#304=ORIENTED_EDGE($,*,*,#232,.T.);
#305=ORIENTED_EDGE($,*,*,#237,.T.);
#306=ORIENTED_EDGE($,*,*,#238,.F.);
#307=ORIENTED_EDGE($,*,*,#239,.F.);
#308=ORIENTED_EDGE($,*,*,#235,.T.);
#309=ORIENTED_EDGE($,*,*,#240,.T.);
#310=ORIENTED_EDGE($,*,*,#241,.F.);
#311=ORIENTED_EDGE($,*,*,#242,.F.);
#312=ORIENTED_EDGE($,*,*,#238,.T.);
#313=ORIENTED_EDGE($,*,*,#243,.T.);
#314=ORIENTED_EDGE($,*,*,#194,.F.);
#315=ORIENTED_EDGE($,*,*,#244,.F.);
#316=ORIENTED_EDGE($,*,*,#241,.T.);
#317=ORIENTED_EDGE($,*,*,#219,.F.);
#318=ORIENTED_EDGE($,*,*,#216,.F.);
#319=ORIENTED_EDGE($,*,*,#213,.F.);
#320=ORIENTED_EDGE($,*,*,#210,.F.);
#321=ORIENTED_EDGE($,*,*,#207,.F.);
#322=ORIENTED_EDGE($,*,*,#204,.F.);
#323=ORIENTED_EDGE($,*,*,#201,.F.);
#324=ORIENTED_EDGE($,*,*,#198,.F.);
#325=ORIENTED_EDGE($,*,*,#195,.F.);
#326=ORIENTED_EDGE($,*,*,#191,.F.);
#327=ORIENTED_EDGE($,*,*,#243,.F.);
#328=ORIENTED_EDGE($,*,*,#240,.F.);
#329=ORIENTED_EDGE($,*,*,#237,.F.);
#330=ORIENTED_EDGE($,*,*,#234,.F.);
#331=ORIENTED_EDGE($,*,*,#231,.F.);
#332=ORIENTED_EDGE($,*,*,#228,.F.);
#333=ORIENTED_EDGE($,*,*,#225,.F.);
#334=ORIENTED_EDGE($,*,*,#222,.F.);
#335=ORIENTED_EDGE($,*,*,#221,.T.);
#336=ORIENTED_EDGE($,*,*,#224,.T.);
#337=ORIENTED_EDGE($,*,*,#227,.T.);
#338=ORIENTED_EDGE($,*,*,#230,.T.);
#339=ORIENTED_EDGE($,*,*,#233,.T.);
#340=ORIENTED_EDGE($,*,*,#236,.T.);
#341=ORIENTED_EDGE($,*,*,#239,.T.);
#342=ORIENTED_EDGE($,*,*,#242,.T.);
#343=ORIENTED_EDGE($,*,*,#244,.T.);
#344=ORIENTED_EDGE($,*,*,#193,.T.);
#345=ORIENTED_EDGE($,*,*,#197,.T.);
#346=ORIENTED_EDGE($,*,*,#200,.T.);
#347=ORIENTED_EDGE($,*,*,#203,.T.);
#348=ORIENTED_EDGE($,*,*,#206,.T.);
#349=ORIENTED_EDGE($,*,*,#209,.T.);
#350=ORIENTED_EDGE($,*,*,#212,.T.);
#351=ORIENTED_EDGE($,*,*,#215,.T.);
#352=ORIENTED_EDGE($,*,*,#218,.T.);
#353=PLANE($,#390);
#354=PLANE($,#394);
#355=PLANE($,#398);
#356=PLANE($,#399);
#357=PLANE($,#403);
#358=PLANE($,#407);
#359=PLANE($,#408);
#360=PLANE($,#409);
#361=PLANE($,#410);
#362=PLANE($,#411);
#363=PLANE($,#415);
#364=PLANE($,#419);
#365=PLANE($,#420);
#366=PLANE($,#421);
#367=ADVANCED_FACE($,(#31),#353,.T.);
#368=ADVANCED_FACE($,(#32),#25,.F.);
#369=ADVANCED_FACE($,(#33),#354,.T.);
#370=ADVANCED_FACE($,(#34),#26,.F.);
#371=ADVANCED_FACE($,(#35),#355,.T.);
#372=ADVANCED_FACE($,(#36),#356,.T.);
#373=ADVANCED_FACE($,(#37),#27,.T.);
#374=ADVANCED_FACE($,(#38),#357,.T.);
#375=ADVANCED_FACE($,(#39),#28,.T.);
#376=ADVANCED_FACE($,(#40),#358,.T.);
#377=ADVANCED_FACE($,(#41),#359,.T.);
#378=ADVANCED_FACE($,(#42),#360,.T.);
#379=ADVANCED_FACE($,(#43),#361,.T.);
#380=ADVANCED_FACE($,(#44),#362,.T.);
#381=ADVANCED_FACE($,(#45),#29,.T.);
#382=ADVANCED_FACE($,(#46),#363,.T.);
#383=ADVANCED_FACE($,(#47),#30,.T.);
#384=ADVANCED_FACE($,(#48),#364,.T.);
#385=ADVANCED_FACE($,(#49),#365,.T.);
#386=ADVANCED_FACE($,(#50),#366,.F.);
#387=CLOSED_SHELL($,(#367,#368,#369,#370,#371,#372,#373,#374,#375,#376,
#377,#378,#379,#380,#381,#382,#383,#384,#385,#386));
#388=MANIFOLD_SOLID_BREP('T\X2\011B\X0\leso1',#387);
#389=AXIS2_PLACEMENT_3D('placement',#530,#422,#423);
#390=AXIS2_PLACEMENT_3D($,#531,#424,#425);
#391=AXIS2_PLACEMENT_3D($,#540,#430,#431);
#392=AXIS2_PLACEMENT_3D($,#542,#432,#433);
#393=AXIS2_PLACEMENT_3D($,#545,#435,#436);
#394=AXIS2_PLACEMENT_3D($,#546,#437,#438);
#395=AXIS2_PLACEMENT_3D($,#552,#442,#443);
#396=AXIS2_PLACEMENT_3D($,#554,#444,#445);
#397=AXIS2_PLACEMENT_3D($,#557,#447,#448);
#398=AXIS2_PLACEMENT_3D($,#558,#449,#450);
#399=AXIS2_PLACEMENT_3D($,#564,#454,#455);
#400=AXIS2_PLACEMENT_3D($,#570,#459,#460);
#401=AXIS2_PLACEMENT_3D($,#572,#461,#462);
#402=AXIS2_PLACEMENT_3D($,#575,#464,#465);
#403=AXIS2_PLACEMENT_3D($,#576,#466,#467);
#404=AXIS2_PLACEMENT_3D($,#582,#471,#472);
#405=AXIS2_PLACEMENT_3D($,#584,#473,#474);
#406=AXIS2_PLACEMENT_3D($,#587,#476,#477);
#407=AXIS2_PLACEMENT_3D($,#588,#478,#479);
#408=AXIS2_PLACEMENT_3D($,#594,#483,#484);
#409=AXIS2_PLACEMENT_3D($,#600,#488,#489);
#410=AXIS2_PLACEMENT_3D($,#606,#493,#494);
#411=AXIS2_PLACEMENT_3D($,#612,#498,#499);
#412=AXIS2_PLACEMENT_3D($,#618,#503,#504);
#413=AXIS2_PLACEMENT_3D($,#620,#505,#506);
#414=AXIS2_PLACEMENT_3D($,#623,#508,#509);
#415=AXIS2_PLACEMENT_3D($,#624,#510,#511);
#416=AXIS2_PLACEMENT_3D($,#630,#515,#516);
#417=AXIS2_PLACEMENT_3D($,#632,#517,#518);
#418=AXIS2_PLACEMENT_3D($,#635,#520,#521);
#419=AXIS2_PLACEMENT_3D($,#636,#522,#523);
#420=AXIS2_PLACEMENT_3D($,#639,#526,#527);
#421=AXIS2_PLACEMENT_3D($,#640,#528,#529);
#422=DIRECTION('axis',(0.,0.,1.));
#423=DIRECTION('refdir',(1.,0.,0.));
#424=DIRECTION('center_axis',(0.,1.,0.));
#425=DIRECTION('ref_axis',(0.,0.,1.));
#426=DIRECTION($,(1.,0.,0.));
#427=DIRECTION($,(0.,0.,1.));
#428=DIRECTION($,(1.,0.,0.));
#429=DIRECTION($,(0.,0.,1.));
#430=DIRECTION('center_axis',(0.,0.,1.));
#431=DIRECTION('ref_axis',(0.,1.,0.));
#432=DIRECTION('center_axis',(0.,0.,1.));
#433=DIRECTION('ref_axis',(0.,1.,0.));
#434=DIRECTION($,(0.,0.,1.));
#435=DIRECTION('center_axis',(0.,0.,1.));
#436=DIRECTION('ref_axis',(0.,1.,0.));
#437=DIRECTION('center_axis',(-1.,-4.11193712824132E-017,0.));
#438=DIRECTION('ref_axis',(0.,0.,1.));
#439=DIRECTION($,(-4.11193712824132E-017,1.,0.));
#440=DIRECTION($,(0.,0.,1.));
#441=DIRECTION($,(-4.11193712824132E-017,1.,0.));
#442=DIRECTION('center_axis',(0.,0.,1.));
#443=DIRECTION('ref_axis',(-1.,0.,0.));
#444=DIRECTION('center_axis',(0.,0.,1.));
#445=DIRECTION('ref_axis',(-1.,0.,0.));
#446=DIRECTION($,(0.,0.,1.));
#447=DIRECTION('center_axis',(0.,0.,1.));
#448=DIRECTION('ref_axis',(-1.,0.,0.));
#449=DIRECTION('center_axis',(0.,-1.,0.));
#450=DIRECTION('ref_axis',(0.,0.,-1.));
#451=DIRECTION($,(-1.,0.,0.));
#452=DIRECTION($,(0.,0.,1.));
#453=DIRECTION($,(-1.,0.,0.));
#454=DIRECTION('center_axis',(-1.,0.,0.));
#455=DIRECTION('ref_axis',(0.,0.,1.));
#456=DIRECTION($,(0.,1.,0.));
#457=DIRECTION($,(0.,0.,1.));
#458=DIRECTION($,(0.,1.,0.));
#459=DIRECTION('center_axis',(0.,0.,1.));
#460=DIRECTION('ref_axis',(0.,1.,0.));
#461=DIRECTION('center_axis',(0.,0.,-1.));
#462=DIRECTION('ref_axis',(0.,1.,0.));
#463=DIRECTION($,(0.,0.,1.));
#464=DIRECTION('center_axis',(0.,0.,-1.));
#465=DIRECTION('ref_axis',(0.,1.,0.));
#466=DIRECTION('center_axis',(0.,1.,0.));
#467=DIRECTION('ref_axis',(0.,0.,1.));
#468=DIRECTION($,(1.,0.,0.));
#469=DIRECTION($,(0.,0.,1.));
#470=DIRECTION($,(1.,0.,0.));
#471=DIRECTION('center_axis',(0.,0.,1.));
#472=DIRECTION('ref_axis',(1.,0.,0.));
#473=DIRECTION('center_axis',(0.,0.,-1.));
#474=DIRECTION('ref_axis',(1.,0.,0.));
#475=DIRECTION($,(0.,0.,1.));
#476=DIRECTION('center_axis',(0.,0.,-1.));
#477=DIRECTION('ref_axis',(1.,0.,0.));
#478=DIRECTION('center_axis',(1.,0.,0.));
#479=DIRECTION('ref_axis',(0.,0.,-1.));
#480=DIRECTION($,(0.,-1.,0.));
#481=DIRECTION($,(0.,0.,1.));
#482=DIRECTION($,(0.,-1.,0.));
#483=DIRECTION('center_axis',(0.,-1.,0.));
#484=DIRECTION('ref_axis',(0.,0.,-1.));
#485=DIRECTION($,(-1.,0.,0.));
#486=DIRECTION($,(0.,0.,1.));
#487=DIRECTION($,(-1.,0.,0.));
#488=DIRECTION('center_axis',(1.,6.00120553851436E-017,0.));
#489=DIRECTION('ref_axis',(0.,0.,-1.));
#490=DIRECTION($,(6.00120553851436E-017,-1.,0.));
#491=DIRECTION($,(0.,0.,1.));
#492=DIRECTION($,(6.00120553851436E-017,-1.,0.));
#493=DIRECTION('center_axis',(0.,1.,0.));
#494=DIRECTION('ref_axis',(0.,0.,1.));
#495=DIRECTION($,(1.,0.,0.));
#496=DIRECTION($,(0.,0.,1.));
#497=DIRECTION($,(1.,0.,0.));
#498=DIRECTION('center_axis',(1.,2.22044604925032E-015,0.));
#499=DIRECTION('ref_axis',(0.,0.,-1.));
#500=DIRECTION($,(2.22044604925032E-015,-1.,0.));
#501=DIRECTION($,(0.,0.,1.));
#502=DIRECTION($,(2.22044604925032E-015,-1.,0.));
#503=DIRECTION('center_axis',(0.,0.,1.));
#504=DIRECTION('ref_axis',(0.,-1.,0.));
#505=DIRECTION('center_axis',(0.,0.,-1.));
#506=DIRECTION('ref_axis',(0.,-1.,0.));
#507=DIRECTION($,(0.,0.,1.));
#508=DIRECTION('center_axis',(0.,0.,-1.));
#509=DIRECTION('ref_axis',(0.,-1.,0.));
#510=DIRECTION('center_axis',(0.,-1.,0.));
#511=DIRECTION('ref_axis',(0.,0.,-1.));
#512=DIRECTION($,(-1.,0.,0.));
#513=DIRECTION($,(0.,0.,1.));
#514=DIRECTION($,(-1.,0.,0.));
#515=DIRECTION('center_axis',(0.,0.,1.));
#516=DIRECTION('ref_axis',(-1.,0.,0.));
#517=DIRECTION('center_axis',(0.,0.,-1.));
#518=DIRECTION('ref_axis',(-1.,0.,0.));
#519=DIRECTION($,(0.,0.,1.));
#520=DIRECTION('center_axis',(0.,0.,-1.));
#521=DIRECTION('ref_axis',(-1.,0.,0.));
#522=DIRECTION('center_axis',(-1.,-2.22044604925032E-015,0.));
#523=DIRECTION('ref_axis',(0.,0.,1.));
#524=DIRECTION($,(-2.22044604925032E-015,1.,0.));
#525=DIRECTION($,(-2.22044604925032E-015,1.,0.));
#526=DIRECTION('center_axis',(0.,0.,1.));
#527=DIRECTION('ref_axis',(1.,0.,0.));
#528=DIRECTION('center_axis',(0.,0.,1.));
#529=DIRECTION('ref_axis',(1.,0.,0.));
#530=CARTESIAN_POINT('',(0.,0.,0.));
#531=CARTESIAN_POINT('Origin',(-10.,-9.25,0.));
#532=CARTESIAN_POINT('',(-10.,-9.25,100.));
#533=CARTESIAN_POINT('',(-5.,-9.25,100.));
#534=CARTESIAN_POINT($,(-5.,-9.25,100.));
#535=CARTESIAN_POINT('',(-5.,-9.25,0.));
#536=CARTESIAN_POINT($,(-5.,-9.25,0.));
#537=CARTESIAN_POINT('',(-10.,-9.25,0.));
#538=CARTESIAN_POINT($,(-5.,-9.25,0.));
#539=CARTESIAN_POINT($,(-10.,-9.25,0.));
#540=CARTESIAN_POINT('Origin',(-5.,-6.75,0.));
#541=CARTESIAN_POINT('',(-2.5,-6.75,100.));
#542=CARTESIAN_POINT('Origin',(-5.,-6.75,100.));
#543=CARTESIAN_POINT('',(-2.5,-6.75,0.));
#544=CARTESIAN_POINT($,(-2.5,-6.75,0.));
#545=CARTESIAN_POINT('Origin',(-5.,-6.75,0.));
#546=CARTESIAN_POINT('Origin',(-2.5,-6.75,0.));
#547=CARTESIAN_POINT('',(-2.5,6.75,100.));
#548=CARTESIAN_POINT($,(-2.5,-3.375,100.));
#549=CARTESIAN_POINT('',(-2.5,6.75,0.));
#550=CARTESIAN_POINT($,(-2.5,6.75,0.));
#551=CARTESIAN_POINT($,(-2.5,-3.375,0.));
#552=CARTESIAN_POINT('Origin',(-5.,6.75,0.));
#553=CARTESIAN_POINT('',(-5.,9.25,100.));
#554=CARTESIAN_POINT('Origin',(-5.,6.75,100.));
#555=CARTESIAN_POINT('',(-5.,9.25,0.));
#556=CARTESIAN_POINT($,(-5.,9.25,0.));
#557=CARTESIAN_POINT('Origin',(-5.,6.75,0.));
#558=CARTESIAN_POINT('Origin',(-5.,9.25,0.));
#559=CARTESIAN_POINT('',(-10.,9.25,100.));
#560=CARTESIAN_POINT($,(-2.5,9.25,100.));
#561=CARTESIAN_POINT('',(-10.,9.25,0.));
#562=CARTESIAN_POINT($,(-10.,9.25,0.));
#563=CARTESIAN_POINT($,(-2.5,9.25,0.));
#564=CARTESIAN_POINT('Origin',(-10.,9.25,0.));
#565=CARTESIAN_POINT('',(-10.,9.75,100.));
#566=CARTESIAN_POINT($,(-10.,4.625,100.));
#567=CARTESIAN_POINT('',(-10.,9.75,0.));
#568=CARTESIAN_POINT($,(-10.,9.75,0.));
#569=CARTESIAN_POINT($,(-10.,4.625,0.));
#570=CARTESIAN_POINT('Origin',(-7.5,9.75,0.));
#571=CARTESIAN_POINT('',(-7.5,12.25,100.));
#572=CARTESIAN_POINT('Origin',(-7.5,9.75,100.));
#573=CARTESIAN_POINT('',(-7.5,12.25,0.));
#574=CARTESIAN_POINT($,(-7.5,12.25,0.));
#575=CARTESIAN_POINT('Origin',(-7.5,9.75,0.));
#576=CARTESIAN_POINT('Origin',(-7.5,12.25,0.));
#577=CARTESIAN_POINT('',(7.5,12.25,100.));
#578=CARTESIAN_POINT($,(-3.75,12.25,100.));
#579=CARTESIAN_POINT('',(7.5,12.25,0.));
#580=CARTESIAN_POINT($,(7.5,12.25,0.));
#581=CARTESIAN_POINT($,(-3.75,12.25,0.));
#582=CARTESIAN_POINT('Origin',(7.5,9.75,0.));
#583=CARTESIAN_POINT('',(10.,9.75,100.));
#584=CARTESIAN_POINT('Origin',(7.5,9.75,100.));
#585=CARTESIAN_POINT('',(10.,9.75,0.));
#586=CARTESIAN_POINT($,(10.,9.75,0.));
#587=CARTESIAN_POINT('Origin',(7.5,9.75,0.));
#588=CARTESIAN_POINT('Origin',(10.,9.75,0.));
#589=CARTESIAN_POINT('',(10.,9.25,100.));
#590=CARTESIAN_POINT($,(10.,4.875,100.));
#591=CARTESIAN_POINT('',(10.,9.25,0.));
#592=CARTESIAN_POINT($,(10.,9.25,0.));
#593=CARTESIAN_POINT($,(10.,4.875,0.));
#594=CARTESIAN_POINT('Origin',(10.,9.25,0.));
#595=CARTESIAN_POINT('',(2.5,9.25,100.));
#596=CARTESIAN_POINT($,(5.,9.25,100.));
#597=CARTESIAN_POINT('',(2.5,9.25,0.));
#598=CARTESIAN_POINT($,(2.5,9.25,0.));
#599=CARTESIAN_POINT($,(5.,9.25,0.));
#600=CARTESIAN_POINT('Origin',(2.5,9.25,0.));
#601=CARTESIAN_POINT('',(2.5,-9.25,100.));
#602=CARTESIAN_POINT($,(2.5,4.625,100.));
#603=CARTESIAN_POINT('',(2.5,-9.25,0.));
#604=CARTESIAN_POINT($,(2.5,-9.25,0.));
#605=CARTESIAN_POINT($,(2.5,4.625,0.));
#606=CARTESIAN_POINT('Origin',(2.5,-9.25,0.));
#607=CARTESIAN_POINT('',(10.,-9.25,100.));
#608=CARTESIAN_POINT($,(1.25,-9.25,100.));
#609=CARTESIAN_POINT('',(10.,-9.25,0.));
#610=CARTESIAN_POINT($,(10.,-9.25,0.));
#611=CARTESIAN_POINT($,(1.25,-9.25,0.));
#612=CARTESIAN_POINT('Origin',(10.,-9.25,0.));
#613=CARTESIAN_POINT('',(10.,-9.75,100.));
#614=CARTESIAN_POINT($,(9.99999999999998,-4.62499999999999,100.));
#615=CARTESIAN_POINT('',(10.,-9.75,0.));
#616=CARTESIAN_POINT($,(10.,-9.75,0.));
#617=CARTESIAN_POINT($,(9.99999999999998,-4.62499999999999,0.));
#618=CARTESIAN_POINT('Origin',(7.5,-9.75,0.));
#619=CARTESIAN_POINT('',(7.5,-12.25,100.));
#620=CARTESIAN_POINT('Origin',(7.5,-9.75,100.));
#621=CARTESIAN_POINT('',(7.5,-12.25,0.));
#622=CARTESIAN_POINT($,(7.5,-12.25,0.));
#623=CARTESIAN_POINT('Origin',(7.5,-9.75,0.));
#624=CARTESIAN_POINT('Origin',(7.5,-12.25,0.));
#625=CARTESIAN_POINT('',(-7.5,-12.25,100.));
#626=CARTESIAN_POINT($,(3.75,-12.25,100.));
#627=CARTESIAN_POINT('',(-7.5,-12.25,0.));
#628=CARTESIAN_POINT($,(-7.5,-12.25,0.));
#629=CARTESIAN_POINT($,(3.75,-12.25,0.));
#630=CARTESIAN_POINT('Origin',(-7.5,-9.75,0.));
#631=CARTESIAN_POINT('',(-10.,-9.75,100.));
#632=CARTESIAN_POINT('Origin',(-7.5,-9.75,100.));
#633=CARTESIAN_POINT('',(-10.,-9.75,0.));
#634=CARTESIAN_POINT($,(-10.,-9.75,0.));
#635=CARTESIAN_POINT('Origin',(-7.5,-9.75,0.));
#636=CARTESIAN_POINT('Origin',(-10.,-9.75,0.));
#637=CARTESIAN_POINT($,(-10.,-4.87500000000001,100.));
#638=CARTESIAN_POINT($,(-10.,-4.87500000000001,0.));
#639=CARTESIAN_POINT('Origin',(5.55111512312578E-016,0.,100.));
#640=CARTESIAN_POINT('Origin',(5.55111512312578E-016,0.,0.));
#641=UNCERTAINTY_MEASURE_WITH_UNIT(LENGTH_MEASURE(0.01),#643,
'DISTANCE_ACCURACY_VALUE',
'Maximum model space distance between geometric entities at asserted c
onnectivities');
#642=(
GEOMETRIC_REPRESENTATION_CONTEXT(3)
GLOBAL_UNCERTAINTY_ASSIGNED_CONTEXT((#641))
GLOBAL_UNIT_ASSIGNED_CONTEXT((#643,#646,#644))
REPRESENTATION_CONTEXT('','3D')
);
#643=(
LENGTH_UNIT()
NAMED_UNIT(*)
SI_UNIT(.MILLI.,.METRE.)
);
#644=(
NAMED_UNIT(*)
SI_UNIT($,.STERADIAN.)
SOLID_ANGLE_UNIT()
);
#645=DIMENSIONAL_EXPONENTS(0.,0.,0.,0.,0.,0.,0.);
#646=(
CONVERSION_BASED_UNIT('degree',#648)
NAMED_UNIT(#645)
PLANE_ANGLE_UNIT()
);
#647=(
NAMED_UNIT(*)
PLANE_ANGLE_UNIT()
SI_UNIT($,.RADIAN.)
);
#648=PLANE_ANGLE_MEASURE_WITH_UNIT(PLANE_ANGLE_MEASURE(0.01745329252),#647);
#649=SHAPE_DEFINITION_REPRESENTATION(#650,#651);
#650=PRODUCT_DEFINITION_SHAPE('',$,#653);
#651=SHAPE_REPRESENTATION('',(#389),#642);
#652=DESIGN_CONTEXT('3D Mechanical Parts',#656,'design');
#653=PRODUCT_DEFINITION('-700024-19','-700024-19',#654,#652);
#654=PRODUCT_DEFINITION_FORMATION('',$,#658);
#655=APPLICATION_PROTOCOL_DEFINITION('international standard',
'ap203_configuration_controlled_3d_design_of_mechanical_parts_and_asse
mblies_mim_lf',2004,#656);
#656=APPLICATION_CONTEXT(
'Configuration Controlled 3D Design of Mechanical Parts and Assemblies');
#657=MECHANICAL_CONTEXT('3D Mechanical Parts',#656,'mechanical');
#658=PRODUCT('-700024-19','-700024-19',$,(#657));
#659=PRESENTATION_STYLE_ASSIGNMENT((#660));
#660=SURFACE_STYLE_USAGE(.BOTH.,#661);
#661=SURFACE_SIDE_STYLE($,(#662));
#662=SURFACE_STYLE_FILL_AREA(#663);
#663=FILL_AREA_STYLE($,(#664));
#664=FILL_AREA_STYLE_COLOUR($,#665);
#665=COLOUR_RGB('',0.529411764705882,0.529411764705882,0.529411764705882);
ENDSEC;
END-ISO-10303-21;
