ISO-10303-21;
HEADER;
/* Generated by software containing ST-Developer
 * from STEP Tools, Inc. (www.steptools.com) 
 */

FILE_DESCRIPTION(
/* description */ ('T\X2\011B\X0\sn\X2\011B\X0\n\X\ED pro panel 4 mm'),

/* implementation_level */ '2;1');

FILE_NAME(
/* name */ 'C:\\Vault_pracovn\X\ED\\Zak\X\E1zky\\Kal\X\E1b_pokus\\7000
15.stp',
/* time_stamp */ '2014-08-19T08:48:10+02:00',
/* author */ ('jank'),
/* organization */ (''),
/* preprocessor_version */ 'ST-DEVELOPER v15.2',
/* originating_system */ 'Autodesk Inventor 2014',
/* authorisation */ '');

FILE_SCHEMA (('CONFIG_CONTROL_DESIGN'));
ENDSEC;

DATA;
#10=SHAPE_REPRESENTATION_RELATIONSHIP('SRR','None',#519,#11);
#11=ADVANCED_BREP_SHAPE_REPRESENTATION($,(#304),#510);
#12=STYLED_ITEM($,(#527),#304);
#13=CIRCLE($,#309,0.5);
#14=CIRCLE($,#310,0.5);
#15=CIRCLE($,#312,5.81613);
#16=CIRCLE($,#313,5.81613);
#17=CIRCLE($,#315,0.25);
#18=CIRCLE($,#316,0.25);
#19=CIRCLE($,#319,15.877341);
#20=CIRCLE($,#320,15.877341);
#21=CIRCLE($,#324,0.272818);
#22=CIRCLE($,#325,0.272818);
#23=CIRCLE($,#328,1.155809);
#24=CIRCLE($,#329,1.155809);
#25=CYLINDRICAL_SURFACE($,#308,0.5);
#26=CYLINDRICAL_SURFACE($,#311,5.81613);
#27=CYLINDRICAL_SURFACE($,#314,0.25);
#28=CYLINDRICAL_SURFACE($,#318,15.877341);
#29=CYLINDRICAL_SURFACE($,#323,0.272818);
#30=CYLINDRICAL_SURFACE($,#327,1.155809);
#31=FACE_OUTER_BOUND($,#47,.T.);
#32=FACE_OUTER_BOUND($,#48,.T.);
#33=FACE_OUTER_BOUND($,#49,.T.);
#34=FACE_OUTER_BOUND($,#50,.T.);
#35=FACE_OUTER_BOUND($,#51,.T.);
#36=FACE_OUTER_BOUND($,#52,.T.);
#37=FACE_OUTER_BOUND($,#53,.T.);
#38=FACE_OUTER_BOUND($,#54,.T.);
#39=FACE_OUTER_BOUND($,#55,.T.);
#40=FACE_OUTER_BOUND($,#56,.T.);
#41=FACE_OUTER_BOUND($,#57,.T.);
#42=FACE_OUTER_BOUND($,#58,.T.);
#43=FACE_OUTER_BOUND($,#59,.T.);
#44=FACE_OUTER_BOUND($,#60,.T.);
#45=FACE_OUTER_BOUND($,#61,.T.);
#46=FACE_OUTER_BOUND($,#62,.T.);
#47=EDGE_LOOP($,(#193,#194,#195,#196));
#48=EDGE_LOOP($,(#197,#198,#199,#200));
#49=EDGE_LOOP($,(#201,#202,#203,#204));
#50=EDGE_LOOP($,(#205,#206,#207,#208));
#51=EDGE_LOOP($,(#209,#210,#211,#212));
#52=EDGE_LOOP($,(#213,#214,#215,#216));
#53=EDGE_LOOP($,(#217,#218,#219,#220));
#54=EDGE_LOOP($,(#221,#222,#223,#224));
#55=EDGE_LOOP($,(#225,#226,#227,#228));
#56=EDGE_LOOP($,(#229,#230,#231,#232));
#57=EDGE_LOOP($,(#233,#234,#235,#236));
#58=EDGE_LOOP($,(#237,#238,#239,#240));
#59=EDGE_LOOP($,(#241,#242,#243,#244));
#60=EDGE_LOOP($,(#245,#246,#247,#248));
#61=EDGE_LOOP($,(#249,#250,#251,#252,#253,#254,#255,#256,#257,#258,#259,
#260,#261,#262));
#62=EDGE_LOOP($,(#263,#264,#265,#266,#267,#268,#269,#270,#271,#272,#273,
#274,#275,#276));
#63=LINE($,#426,#93);
#64=LINE($,#428,#94);
#65=LINE($,#430,#95);
#66=LINE($,#431,#96);
#67=LINE($,#434,#97);
#68=LINE($,#436,#98);
#69=LINE($,#437,#99);
#70=LINE($,#442,#100);
#71=LINE($,#448,#101);
#72=LINE($,#454,#102);
#73=LINE($,#458,#103);
#74=LINE($,#460,#104);
#75=LINE($,#461,#105);
#76=LINE($,#466,#106);
#77=LINE($,#470,#107);
#78=LINE($,#472,#108);
#79=LINE($,#473,#109);
#80=LINE($,#476,#110);
#81=LINE($,#478,#111);
#82=LINE($,#479,#112);
#83=LINE($,#484,#113);
#84=LINE($,#488,#114);
#85=LINE($,#490,#115);
#86=LINE($,#491,#116);
#87=LINE($,#496,#117);
#88=LINE($,#500,#118);
#89=LINE($,#502,#119);
#90=LINE($,#503,#120);
#91=LINE($,#505,#121);
#92=LINE($,#506,#122);
#93=VECTOR($,#338,2.2);
#94=VECTOR($,#339,100.);
#95=VECTOR($,#340,2.2);
#96=VECTOR($,#341,100.);
#97=VECTOR($,#344,1.49972598931715);
#98=VECTOR($,#345,100.);
#99=VECTOR($,#346,1.49972598931715);
#100=VECTOR($,#351,100.);
#101=VECTOR($,#358,100.);
#102=VECTOR($,#365,100.);
#103=VECTOR($,#370,1.89665420334264);
#104=VECTOR($,#371,100.);
#105=VECTOR($,#372,1.89665420334264);
#106=VECTOR($,#377,100.);
#107=VECTOR($,#382,0.500000083838913);
#108=VECTOR($,#383,100.);
#109=VECTOR($,#384,0.500000083838913);
#110=VECTOR($,#387,2.22718217369087);
#111=VECTOR($,#388,100.);
#112=VECTOR($,#389,2.22718217369087);
#113=VECTOR($,#394,100.);
#114=VECTOR($,#399,3.80237712426639);
#115=VECTOR($,#400,100.);
#116=VECTOR($,#401,3.80237712426639);
#117=VECTOR($,#406,100.);
#118=VECTOR($,#411,0.450000424743133);
#119=VECTOR($,#412,100.);
#120=VECTOR($,#413,0.450000424743133);
#121=VECTOR($,#416,0.5);
#122=VECTOR($,#417,0.5);
#123=VERTEX_POINT($,#424);
#124=VERTEX_POINT($,#425);
#125=VERTEX_POINT($,#427);
#126=VERTEX_POINT($,#429);
#127=VERTEX_POINT($,#433);
#128=VERTEX_POINT($,#435);
#129=VERTEX_POINT($,#439);
#130=VERTEX_POINT($,#441);
#131=VERTEX_POINT($,#445);
#132=VERTEX_POINT($,#447);
#133=VERTEX_POINT($,#451);
#134=VERTEX_POINT($,#453);
#135=VERTEX_POINT($,#457);
#136=VERTEX_POINT($,#459);
#137=VERTEX_POINT($,#463);
#138=VERTEX_POINT($,#465);
#139=VERTEX_POINT($,#469);
#140=VERTEX_POINT($,#471);
#141=VERTEX_POINT($,#475);
#142=VERTEX_POINT($,#477);
#143=VERTEX_POINT($,#481);
#144=VERTEX_POINT($,#483);
#145=VERTEX_POINT($,#487);
#146=VERTEX_POINT($,#489);
#147=VERTEX_POINT($,#493);
#148=VERTEX_POINT($,#495);
#149=VERTEX_POINT($,#499);
#150=VERTEX_POINT($,#501);
#151=EDGE_CURVE($,#123,#124,#63,.T.);
#152=EDGE_CURVE($,#125,#124,#64,.T.);
#153=EDGE_CURVE($,#126,#125,#65,.T.);
#154=EDGE_CURVE($,#126,#123,#66,.T.);
#155=EDGE_CURVE($,#124,#127,#67,.T.);
#156=EDGE_CURVE($,#128,#127,#68,.T.);
#157=EDGE_CURVE($,#125,#128,#69,.T.);
#158=EDGE_CURVE($,#127,#129,#13,.T.);
#159=EDGE_CURVE($,#130,#129,#70,.T.);
#160=EDGE_CURVE($,#128,#130,#14,.T.);
#161=EDGE_CURVE($,#129,#131,#15,.T.);
#162=EDGE_CURVE($,#132,#131,#71,.T.);
#163=EDGE_CURVE($,#130,#132,#16,.T.);
#164=EDGE_CURVE($,#131,#133,#17,.T.);
#165=EDGE_CURVE($,#134,#133,#72,.T.);
#166=EDGE_CURVE($,#132,#134,#18,.T.);
#167=EDGE_CURVE($,#133,#135,#73,.T.);
#168=EDGE_CURVE($,#136,#135,#74,.T.);
#169=EDGE_CURVE($,#134,#136,#75,.T.);
#170=EDGE_CURVE($,#135,#137,#19,.T.);
#171=EDGE_CURVE($,#138,#137,#76,.T.);
#172=EDGE_CURVE($,#136,#138,#20,.T.);
#173=EDGE_CURVE($,#137,#139,#77,.T.);
#174=EDGE_CURVE($,#140,#139,#78,.T.);
#175=EDGE_CURVE($,#138,#140,#79,.T.);
#176=EDGE_CURVE($,#139,#141,#80,.T.);
#177=EDGE_CURVE($,#142,#141,#81,.T.);
#178=EDGE_CURVE($,#140,#142,#82,.T.);
#179=EDGE_CURVE($,#141,#143,#21,.T.);
#180=EDGE_CURVE($,#144,#143,#83,.T.);
#181=EDGE_CURVE($,#142,#144,#22,.T.);
#182=EDGE_CURVE($,#143,#145,#84,.T.);
#183=EDGE_CURVE($,#146,#145,#85,.T.);
#184=EDGE_CURVE($,#144,#146,#86,.T.);
#185=EDGE_CURVE($,#145,#147,#23,.T.);
#186=EDGE_CURVE($,#148,#147,#87,.T.);
#187=EDGE_CURVE($,#146,#148,#24,.T.);
#188=EDGE_CURVE($,#147,#149,#88,.T.);
#189=EDGE_CURVE($,#150,#149,#89,.T.);
#190=EDGE_CURVE($,#148,#150,#90,.T.);
#191=EDGE_CURVE($,#149,#123,#91,.T.);
#192=EDGE_CURVE($,#150,#126,#92,.T.);
#193=ORIENTED_EDGE($,*,*,#151,.T.);
#194=ORIENTED_EDGE($,*,*,#152,.F.);
#195=ORIENTED_EDGE($,*,*,#153,.F.);
#196=ORIENTED_EDGE($,*,*,#154,.T.);
#197=ORIENTED_EDGE($,*,*,#155,.T.);
#198=ORIENTED_EDGE($,*,*,#156,.F.);
#199=ORIENTED_EDGE($,*,*,#157,.F.);
#200=ORIENTED_EDGE($,*,*,#152,.T.);
#201=ORIENTED_EDGE($,*,*,#158,.T.);
#202=ORIENTED_EDGE($,*,*,#159,.F.);
#203=ORIENTED_EDGE($,*,*,#160,.F.);
#204=ORIENTED_EDGE($,*,*,#156,.T.);
#205=ORIENTED_EDGE($,*,*,#161,.T.);
#206=ORIENTED_EDGE($,*,*,#162,.F.);
#207=ORIENTED_EDGE($,*,*,#163,.F.);
#208=ORIENTED_EDGE($,*,*,#159,.T.);
#209=ORIENTED_EDGE($,*,*,#164,.T.);
#210=ORIENTED_EDGE($,*,*,#165,.F.);
#211=ORIENTED_EDGE($,*,*,#166,.F.);
#212=ORIENTED_EDGE($,*,*,#162,.T.);
#213=ORIENTED_EDGE($,*,*,#167,.T.);
#214=ORIENTED_EDGE($,*,*,#168,.F.);
#215=ORIENTED_EDGE($,*,*,#169,.F.);
#216=ORIENTED_EDGE($,*,*,#165,.T.);
#217=ORIENTED_EDGE($,*,*,#170,.T.);
#218=ORIENTED_EDGE($,*,*,#171,.F.);
#219=ORIENTED_EDGE($,*,*,#172,.F.);
#220=ORIENTED_EDGE($,*,*,#168,.T.);
#221=ORIENTED_EDGE($,*,*,#173,.T.);
#222=ORIENTED_EDGE($,*,*,#174,.F.);
#223=ORIENTED_EDGE($,*,*,#175,.F.);
#224=ORIENTED_EDGE($,*,*,#171,.T.);
#225=ORIENTED_EDGE($,*,*,#176,.T.);
#226=ORIENTED_EDGE($,*,*,#177,.F.);
#227=ORIENTED_EDGE($,*,*,#178,.F.);
#228=ORIENTED_EDGE($,*,*,#174,.T.);
#229=ORIENTED_EDGE($,*,*,#179,.T.);
#230=ORIENTED_EDGE($,*,*,#180,.F.);
#231=ORIENTED_EDGE($,*,*,#181,.F.);
#232=ORIENTED_EDGE($,*,*,#177,.T.);
#233=ORIENTED_EDGE($,*,*,#182,.T.);
#234=ORIENTED_EDGE($,*,*,#183,.F.);
#235=ORIENTED_EDGE($,*,*,#184,.F.);
#236=ORIENTED_EDGE($,*,*,#180,.T.);
#237=ORIENTED_EDGE($,*,*,#185,.T.);
#238=ORIENTED_EDGE($,*,*,#186,.F.);
#239=ORIENTED_EDGE($,*,*,#187,.F.);
#240=ORIENTED_EDGE($,*,*,#183,.T.);
#241=ORIENTED_EDGE($,*,*,#188,.T.);
#242=ORIENTED_EDGE($,*,*,#189,.F.);
#243=ORIENTED_EDGE($,*,*,#190,.F.);
#244=ORIENTED_EDGE($,*,*,#186,.T.);
#245=ORIENTED_EDGE($,*,*,#191,.T.);
#246=ORIENTED_EDGE($,*,*,#154,.F.);
#247=ORIENTED_EDGE($,*,*,#192,.F.);
#248=ORIENTED_EDGE($,*,*,#189,.T.);
#249=ORIENTED_EDGE($,*,*,#173,.F.);
#250=ORIENTED_EDGE($,*,*,#170,.F.);
#251=ORIENTED_EDGE($,*,*,#167,.F.);
#252=ORIENTED_EDGE($,*,*,#164,.F.);
#253=ORIENTED_EDGE($,*,*,#161,.F.);
#254=ORIENTED_EDGE($,*,*,#158,.F.);
#255=ORIENTED_EDGE($,*,*,#155,.F.);
#256=ORIENTED_EDGE($,*,*,#151,.F.);
#257=ORIENTED_EDGE($,*,*,#191,.F.);
#258=ORIENTED_EDGE($,*,*,#188,.F.);
#259=ORIENTED_EDGE($,*,*,#185,.F.);
#260=ORIENTED_EDGE($,*,*,#182,.F.);
#261=ORIENTED_EDGE($,*,*,#179,.F.);
#262=ORIENTED_EDGE($,*,*,#176,.F.);
#263=ORIENTED_EDGE($,*,*,#175,.T.);
#264=ORIENTED_EDGE($,*,*,#178,.T.);
#265=ORIENTED_EDGE($,*,*,#181,.T.);
#266=ORIENTED_EDGE($,*,*,#184,.T.);
#267=ORIENTED_EDGE($,*,*,#187,.T.);
#268=ORIENTED_EDGE($,*,*,#190,.T.);
#269=ORIENTED_EDGE($,*,*,#192,.T.);
#270=ORIENTED_EDGE($,*,*,#153,.T.);
#271=ORIENTED_EDGE($,*,*,#157,.T.);
#272=ORIENTED_EDGE($,*,*,#160,.T.);
#273=ORIENTED_EDGE($,*,*,#163,.T.);
#274=ORIENTED_EDGE($,*,*,#166,.T.);
#275=ORIENTED_EDGE($,*,*,#169,.T.);
#276=ORIENTED_EDGE($,*,*,#172,.T.);
#277=PLANE($,#306);
#278=PLANE($,#307);
#279=PLANE($,#317);
#280=PLANE($,#321);
#281=PLANE($,#322);
#282=PLANE($,#326);
#283=PLANE($,#330);
#284=PLANE($,#331);
#285=PLANE($,#332);
#286=PLANE($,#333);
#287=ADVANCED_FACE($,(#31),#277,.T.);
#288=ADVANCED_FACE($,(#32),#278,.T.);
#289=ADVANCED_FACE($,(#33),#25,.T.);
#290=ADVANCED_FACE($,(#34),#26,.F.);
#291=ADVANCED_FACE($,(#35),#27,.T.);
#292=ADVANCED_FACE($,(#36),#279,.T.);
#293=ADVANCED_FACE($,(#37),#28,.T.);
#294=ADVANCED_FACE($,(#38),#280,.T.);
#295=ADVANCED_FACE($,(#39),#281,.T.);
#296=ADVANCED_FACE($,(#40),#29,.T.);
#297=ADVANCED_FACE($,(#41),#282,.T.);
#298=ADVANCED_FACE($,(#42),#30,.F.);
#299=ADVANCED_FACE($,(#43),#283,.T.);
#300=ADVANCED_FACE($,(#44),#284,.T.);
#301=ADVANCED_FACE($,(#45),#285,.T.);
#302=ADVANCED_FACE($,(#46),#286,.F.);
#303=CLOSED_SHELL($,(#287,#288,#289,#290,#291,#292,#293,#294,#295,#296,
#297,#298,#299,#300,#301,#302));
#304=MANIFOLD_SOLID_BREP('T\X2\011B\X0\leso1',#303);
#305=AXIS2_PLACEMENT_3D('placement',#422,#334,#335);
#306=AXIS2_PLACEMENT_3D($,#423,#336,#337);
#307=AXIS2_PLACEMENT_3D($,#432,#342,#343);
#308=AXIS2_PLACEMENT_3D($,#438,#347,#348);
#309=AXIS2_PLACEMENT_3D($,#440,#349,#350);
#310=AXIS2_PLACEMENT_3D($,#443,#352,#353);
#311=AXIS2_PLACEMENT_3D($,#444,#354,#355);
#312=AXIS2_PLACEMENT_3D($,#446,#356,#357);
#313=AXIS2_PLACEMENT_3D($,#449,#359,#360);
#314=AXIS2_PLACEMENT_3D($,#450,#361,#362);
#315=AXIS2_PLACEMENT_3D($,#452,#363,#364);
#316=AXIS2_PLACEMENT_3D($,#455,#366,#367);
#317=AXIS2_PLACEMENT_3D($,#456,#368,#369);
#318=AXIS2_PLACEMENT_3D($,#462,#373,#374);
#319=AXIS2_PLACEMENT_3D($,#464,#375,#376);
#320=AXIS2_PLACEMENT_3D($,#467,#378,#379);
#321=AXIS2_PLACEMENT_3D($,#468,#380,#381);
#322=AXIS2_PLACEMENT_3D($,#474,#385,#386);
#323=AXIS2_PLACEMENT_3D($,#480,#390,#391);
#324=AXIS2_PLACEMENT_3D($,#482,#392,#393);
#325=AXIS2_PLACEMENT_3D($,#485,#395,#396);
#326=AXIS2_PLACEMENT_3D($,#486,#397,#398);
#327=AXIS2_PLACEMENT_3D($,#492,#402,#403);
#328=AXIS2_PLACEMENT_3D($,#494,#404,#405);
#329=AXIS2_PLACEMENT_3D($,#497,#407,#408);
#330=AXIS2_PLACEMENT_3D($,#498,#409,#410);
#331=AXIS2_PLACEMENT_3D($,#504,#414,#415);
#332=AXIS2_PLACEMENT_3D($,#507,#418,#419);
#333=AXIS2_PLACEMENT_3D($,#508,#420,#421);
#334=DIRECTION('axis',(0.,0.,1.));
#335=DIRECTION('refdir',(1.,0.,0.));
#336=DIRECTION('center_axis',(-1.,0.,0.));
#337=DIRECTION('ref_axis',(0.,0.,1.));
#338=DIRECTION($,(0.,1.,0.));
#339=DIRECTION($,(0.,0.,1.));
#340=DIRECTION($,(0.,1.,0.));
#341=DIRECTION($,(0.,0.,1.));
#342=DIRECTION('center_axis',(0.,-1.,0.));
#343=DIRECTION('ref_axis',(0.,0.,-1.));
#344=DIRECTION($,(-1.,0.,0.));
#345=DIRECTION($,(0.,0.,1.));
#346=DIRECTION($,(-1.,0.,0.));
#347=DIRECTION('center_axis',(0.,0.,1.));
#348=DIRECTION('ref_axis',(-0.0886509502392241,0.996062753556061,0.));
#349=DIRECTION('center_axis',(0.,0.,-1.));
#350=DIRECTION('ref_axis',(-0.0886509502392241,0.996062753556061,0.));
#351=DIRECTION($,(0.,0.,1.));
#352=DIRECTION('center_axis',(0.,0.,-1.));
#353=DIRECTION('ref_axis',(-0.0886509502392241,0.996062753556061,0.));
#354=DIRECTION('center_axis',(0.,0.,1.));
#355=DIRECTION('ref_axis',(-0.401233035349382,0.915976010244985,0.));
#356=DIRECTION('center_axis',(0.,0.,1.));
#357=DIRECTION('ref_axis',(-0.401233035349382,0.915976010244985,0.));
#358=DIRECTION($,(0.,0.,1.));
#359=DIRECTION('center_axis',(0.,0.,1.));
#360=DIRECTION('ref_axis',(-0.401233035349382,0.915976010244985,0.));
#361=DIRECTION('center_axis',(0.,0.,1.));
#362=DIRECTION('ref_axis',(0.924744066493456,-0.38058955777208,0.));
#363=DIRECTION('center_axis',(0.,0.,-1.));
#364=DIRECTION('ref_axis',(0.924744066493456,-0.38058955777208,0.));
#365=DIRECTION($,(0.,0.,1.));
#366=DIRECTION('center_axis',(0.,0.,-1.));
#367=DIRECTION('ref_axis',(0.924744066493456,-0.38058955777208,0.));
#368=DIRECTION('center_axis',(0.988949374173163,-0.148253618244243,0.));
#369=DIRECTION('ref_axis',(0.,0.,-1.));
#370=DIRECTION($,(-0.148253618244243,-0.988949374173163,0.));
#371=DIRECTION($,(0.,0.,1.));
#372=DIRECTION($,(-0.148253618244243,-0.988949374173163,0.));
#373=DIRECTION('center_axis',(0.,0.,1.));
#374=DIRECTION('ref_axis',(0.980317581494459,-0.197427048331415,0.));
#375=DIRECTION('center_axis',(0.,0.,-1.));
#376=DIRECTION('ref_axis',(0.980317581494459,-0.197427048331415,0.));
#377=DIRECTION($,(0.,0.,1.));
#378=DIRECTION('center_axis',(0.,0.,-1.));
#379=DIRECTION('ref_axis',(0.980317581494459,-0.197427048331415,0.));
#380=DIRECTION('center_axis',(0.,-1.,0.));
#381=DIRECTION('ref_axis',(0.,0.,-1.));
#382=DIRECTION($,(-1.,0.,0.));
#383=DIRECTION($,(0.,0.,1.));
#384=DIRECTION($,(-1.,0.,0.));
#385=DIRECTION('center_axis',(1.,1.2462193682896E-016,0.));
#386=DIRECTION('ref_axis',(0.,0.,-1.));
#387=DIRECTION($,(1.2462193682896E-016,-1.,0.));
#388=DIRECTION($,(0.,0.,1.));
#389=DIRECTION($,(1.2462193682896E-016,-1.,0.));
#390=DIRECTION('center_axis',(0.,0.,1.));
#391=DIRECTION('ref_axis',(-0.983476762469557,-0.181034410216395,0.));
#392=DIRECTION('center_axis',(0.,0.,-1.));
#393=DIRECTION('ref_axis',(-0.983476762469557,-0.181034410216395,0.));
#394=DIRECTION($,(0.,0.,1.));
#395=DIRECTION('center_axis',(0.,0.,-1.));
#396=DIRECTION('ref_axis',(-0.983476762469557,-0.181034410216395,0.));
#397=DIRECTION('center_axis',(-0.983476762469558,-0.181034410216394,0.));
#398=DIRECTION('ref_axis',(0.,0.,1.));
#399=DIRECTION($,(-0.181034410216394,0.983476762469557,0.));
#400=DIRECTION($,(0.,0.,1.));
#401=DIRECTION($,(-0.181034410216394,0.983476762469557,0.));
#402=DIRECTION('center_axis',(0.,0.,1.));
#403=DIRECTION('ref_axis',(-0.983476762469558,-0.181034410216394,0.));
#404=DIRECTION('center_axis',(0.,0.,1.));
#405=DIRECTION('ref_axis',(-0.983476762469558,-0.181034410216394,0.));
#406=DIRECTION($,(0.,0.,1.));
#407=DIRECTION('center_axis',(0.,0.,1.));
#408=DIRECTION('ref_axis',(-0.983476762469558,-0.181034410216394,0.));
#409=DIRECTION('center_axis',(-1.,0.,0.));
#410=DIRECTION('ref_axis',(0.,0.,1.));
#411=DIRECTION($,(0.,1.,0.));
#412=DIRECTION($,(0.,0.,1.));
#413=DIRECTION($,(0.,1.,0.));
#414=DIRECTION('center_axis',(0.,1.,0.));
#415=DIRECTION('ref_axis',(0.,0.,1.));
#416=DIRECTION($,(1.,0.,0.));
#417=DIRECTION($,(1.,0.,0.));
#418=DIRECTION('center_axis',(0.,0.,1.));
#419=DIRECTION('ref_axis',(1.,0.,0.));
#420=DIRECTION('center_axis',(0.,0.,1.));
#421=DIRECTION('ref_axis',(1.,0.,0.));
#422=CARTESIAN_POINT('',(0.,0.,0.));
#423=CARTESIAN_POINT('Origin',(0.,-2.199072,0.));
#424=CARTESIAN_POINT('',(0.,-2.199072,100.));
#425=CARTESIAN_POINT('',(0.,0.000928,100.));
#426=CARTESIAN_POINT($,(0.,-2.10155305602256,100.));
#427=CARTESIAN_POINT('',(0.,0.000928,0.));
#428=CARTESIAN_POINT($,(0.,0.000928,0.));
#429=CARTESIAN_POINT('',(0.,-2.199072,0.));
#430=CARTESIAN_POINT($,(0.,-2.10155305602256,0.));
#431=CARTESIAN_POINT($,(0.,-2.199072,0.));
#432=CARTESIAN_POINT('Origin',(0.,0.000928,0.));
#433=CARTESIAN_POINT('',(-1.49972598931715,0.000928,100.));
#434=CARTESIAN_POINT($,(0.203126195268762,0.00092800000000004,100.));
#435=CARTESIAN_POINT('',(-1.49972598931715,0.000928,0.));
#436=CARTESIAN_POINT($,(-1.49972598931715,0.000928,0.));
#437=CARTESIAN_POINT($,(0.203126195268762,0.00092800000000004,0.));
#438=CARTESIAN_POINT('Origin',(-1.,0.017479,0.));
#439=CARTESIAN_POINT('',(-1.04432547511961,0.515510376778031,100.));
#440=CARTESIAN_POINT('Origin',(-1.,0.017479,100.));
#441=CARTESIAN_POINT('',(-1.04432547511961,0.515510376778031,0.));
#442=CARTESIAN_POINT($,(-1.04432547511961,0.515510376778031,0.));
#443=CARTESIAN_POINT('Origin',(-1.,0.017479,0.));
#444=CARTESIAN_POINT('Origin',(-3.37794896900621,5.8429459292442,0.));
#445=CARTESIAN_POINT('',(1.92700369230463,3.45865453804407,100.));
#446=CARTESIAN_POINT('Origin',(-3.37794896900621,5.8429459292442,100.));
#447=CARTESIAN_POINT('',(1.92700369230463,3.45865453804407,0.));
#448=CARTESIAN_POINT($,(1.92700369230463,3.45865453804407,0.));
#449=CARTESIAN_POINT('Origin',(-3.37794896900621,5.8429459292442,0.));
#450=CARTESIAN_POINT('Origin',(2.0500001423382,3.24100373221249,0.));
#451=CARTESIAN_POINT('',(2.28118615896156,3.14585634276947,100.));
#452=CARTESIAN_POINT('Origin',(2.0500001423382,3.24100373221249,100.));
#453=CARTESIAN_POINT('',(2.28118615896156,3.14585634276947,0.));
#454=CARTESIAN_POINT($,(2.28118615896156,3.14585634276947,0.));
#455=CARTESIAN_POINT('Origin',(2.0500001423382,3.24100373221249,0.));
#456=CARTESIAN_POINT('Origin',(2.28118615896156,3.14585634276947,0.));
#457=CARTESIAN_POINT('',(2.00000031075786,1.27016135535087,100.));
#458=CARTESIAN_POINT($,(1.88305502127697,0.490059174950159,100.));
#459=CARTESIAN_POINT('',(2.00000031075786,1.27016135535087,0.));
#460=CARTESIAN_POINT($,(2.00000031075786,1.27016135535087,0.));
#461=CARTESIAN_POINT($,(1.88305502127697,0.490059174950159,0.));
#462=CARTESIAN_POINT('Origin',(-13.564836218925,-1.86445521363047,0.));
#463=CARTESIAN_POINT('',(2.00000031075786,-4.99907178261183,100.));
#464=CARTESIAN_POINT('Origin',(-13.564836218925,-1.86445521363047,100.));
#465=CARTESIAN_POINT('',(2.00000031075786,-4.99907178261183,0.));
#466=CARTESIAN_POINT($,(2.00000031075786,-4.99907178261183,0.));
#467=CARTESIAN_POINT('Origin',(-13.564836218925,-1.86445521363047,0.));
#468=CARTESIAN_POINT('Origin',(2.00000031075786,-4.99907178261183,0.));
#469=CARTESIAN_POINT('',(1.50000022691895,-4.99907178261183,100.));
#470=CARTESIAN_POINT($,(1.20312635064769,-4.99907178261183,100.));
#471=CARTESIAN_POINT('',(1.50000022691895,-4.99907178261183,0.));
#472=CARTESIAN_POINT($,(1.50000022691895,-4.99907178261183,0.));
#473=CARTESIAN_POINT($,(1.20312635064769,-4.99907178261183,0.));
#474=CARTESIAN_POINT('Origin',(1.50000022691895,-4.99907178261183,0.));
#475=CARTESIAN_POINT('',(1.50000022691895,-7.22625395630271,100.));
#476=CARTESIAN_POINT($,(1.50000022691895,-3.50155294732847,100.));
#477=CARTESIAN_POINT('',(1.50000022691895,-7.22625395630271,0.));
#478=CARTESIAN_POINT($,(1.50000022691895,-7.22625395630271,0.));
#479=CARTESIAN_POINT($,(1.50000022691895,-3.50155294732847,0.));
#480=CARTESIAN_POINT('Origin',(1.22718222691895,-7.22625395630271,0.));
#481=CARTESIAN_POINT('',(0.958872063535528,-7.27564340202912,100.));
#482=CARTESIAN_POINT('Origin',(1.22718222691895,-7.22625395630271,100.));
#483=CARTESIAN_POINT('',(0.958872063535528,-7.27564340202912,0.));
#484=CARTESIAN_POINT($,(0.958872063535528,-7.27564340202912,0.));
#485=CARTESIAN_POINT('Origin',(1.22718222691895,-7.22625395630271,0.));
#486=CARTESIAN_POINT('Origin',(0.958872063535528,-7.27564340202912,0.));
#487=CARTESIAN_POINT('',(0.270510963423654,-3.53609385816731,100.));
#488=CARTESIAN_POINT($,(0.480529510832866,-4.67702811932617,100.));
#489=CARTESIAN_POINT('',(0.270510963423654,-3.53609385816731,0.));
#490=CARTESIAN_POINT($,(0.270510963423654,-3.53609385816731,0.));
#491=CARTESIAN_POINT($,(0.480529510832866,-4.67702811932617,0.));
#492=CARTESIAN_POINT('Origin',(-0.866200329929523,-3.74533505880511,0.));
#493=CARTESIAN_POINT('',(-0.5,-2.64907242474313,100.));
#494=CARTESIAN_POINT('Origin',(-0.866200329929523,-3.74533505880511,100.));
#495=CARTESIAN_POINT('',(-0.5,-2.64907242474313,0.));
#496=CARTESIAN_POINT($,(-0.5,-2.64907242474313,0.));
#497=CARTESIAN_POINT('Origin',(-0.866200329929523,-3.74533505880511,0.));
#498=CARTESIAN_POINT('Origin',(-0.5,-2.64907242474313,0.));
#499=CARTESIAN_POINT('',(-0.5,-2.199072,100.));
#500=CARTESIAN_POINT($,(-0.5,-2.32655326839412,100.));
#501=CARTESIAN_POINT('',(-0.5,-2.199072,0.));
#502=CARTESIAN_POINT($,(-0.5,-2.199072,0.));
#503=CARTESIAN_POINT($,(-0.5,-2.32655326839412,0.));
#504=CARTESIAN_POINT('Origin',(-0.5,-2.199072,0.));
#505=CARTESIAN_POINT($,(-0.0468738047312383,-2.199072,100.));
#506=CARTESIAN_POINT($,(-0.0468738047312383,-2.199072,0.));
#507=CARTESIAN_POINT('Origin',(0.406252390537523,-2.00403411204511,100.));
#508=CARTESIAN_POINT('Origin',(0.406252390537523,-2.00403411204511,0.));
#509=UNCERTAINTY_MEASURE_WITH_UNIT(LENGTH_MEASURE(0.01),#511,
'DISTANCE_ACCURACY_VALUE',
'Maximum model space distance between geometric entities at asserted c
onnectivities');
#510=(
GEOMETRIC_REPRESENTATION_CONTEXT(3)
GLOBAL_UNCERTAINTY_ASSIGNED_CONTEXT((#509))
GLOBAL_UNIT_ASSIGNED_CONTEXT((#511,#514,#512))
REPRESENTATION_CONTEXT('','3D')
);
#511=(
LENGTH_UNIT()
NAMED_UNIT(*)
SI_UNIT(.MILLI.,.METRE.)
);
#512=(
NAMED_UNIT(*)
SI_UNIT($,.STERADIAN.)
SOLID_ANGLE_UNIT()
);
#513=DIMENSIONAL_EXPONENTS(0.,0.,0.,0.,0.,0.,0.);
#514=(
CONVERSION_BASED_UNIT('degree',#516)
NAMED_UNIT(#513)
PLANE_ANGLE_UNIT()
);
#515=(
NAMED_UNIT(*)
PLANE_ANGLE_UNIT()
SI_UNIT($,.RADIAN.)
);
#516=PLANE_ANGLE_MEASURE_WITH_UNIT(PLANE_ANGLE_MEASURE(0.01745329252),#515);
#517=SHAPE_DEFINITION_REPRESENTATION(#518,#519);
#518=PRODUCT_DEFINITION_SHAPE('',$,#521);
#519=SHAPE_REPRESENTATION('',(#305),#510);
#520=DESIGN_CONTEXT('3D Mechanical Parts',#524,'design');
#521=PRODUCT_DEFINITION('-700015-6','-700015-6',#522,#520);
#522=PRODUCT_DEFINITION_FORMATION('',$,#526);
#523=APPLICATION_PROTOCOL_DEFINITION('international standard',
'ap203_configuration_controlled_3d_design_of_mechanical_parts_and_asse
mblies_mim_lf',2004,#524);
#524=APPLICATION_CONTEXT(
'Configuration Controlled 3D Design of Mechanical Parts and Assemblies');
#525=MECHANICAL_CONTEXT('3D Mechanical Parts',#524,'mechanical');
#526=PRODUCT('-700015-6','-700015-6',$,(#525));
#527=PRESENTATION_STYLE_ASSIGNMENT((#528));
#528=SURFACE_STYLE_USAGE(.BOTH.,#529);
#529=SURFACE_SIDE_STYLE($,(#530));
#530=SURFACE_STYLE_FILL_AREA(#531);
#531=FILL_AREA_STYLE($,(#532));
#532=FILL_AREA_STYLE_COLOUR($,#533);
#533=COLOUR_RGB('',0.258823529411765,0.258823529411765,0.258823529411765);
ENDSEC;
END-ISO-10303-21;
