ISO-10303-21;
HEADER;
/****************************************************************
 * Generated by software with PDE/Lib inside                    *
 * PDElib Version v51a, created Mon 03/22/2010                  *
 * International Technegroup Inc. (www.iti-oh.com)              *
 ****************************************************************/
FILE_DESCRIPTION((''),'2;1');
FILE_NAME('D:\\P\X2\0159\X0\evod katalogu\\P\X2\0159\X0\evod do STEP\\Modul 45\\Kompleta\X2\010D\X0\n\S\m dopl\X2\0148\X0\ky\\700010\\700010.ipt.stp','2010-09-05T12:23:10',(''),(''),'Autodesk Inventor 2010','Autodesk Inventor 2010','');
FILE_SCHEMA(('AUTOMOTIVE_DESIGN { 1 0 10303 214 1 1 1 1 }'));
ENDSEC;
DATA;
#5=APPLICATION_CONTEXT('automotive design');
#6=APPLICATION_PROTOCOL_DEFINITION('International Standard','automotive_design',2001,#5);
#7=PRODUCT_CONTEXT('',#5,'mechanical');
#8=PRODUCT('700010','700010',$,(#7));
#9=PRODUCT_RELATED_PRODUCT_CATEGORY('part',$,(#8));
#10=PRODUCT_DEFINITION_FORMATION('',$,#8);
#11=PRODUCT_DEFINITION_CONTEXT('part definition',#5,'design');
#12=PRODUCT_DEFINITION('',$,#10,#11);
#18=(NAMED_UNIT(*)PLANE_ANGLE_UNIT()SI_UNIT($,.RADIAN.));
#19=DIMENSIONAL_EXPONENTS(0.0,0.0,0.0,0.0,0.0,0.0,0.0);
#20=PLANE_ANGLE_MEASURE_WITH_UNIT(PLANE_ANGLE_MEASURE(0.017453292500000),#18);
#24=(CONVERSION_BASED_UNIT('DEGREE',#20)NAMED_UNIT(#19)PLANE_ANGLE_UNIT());
#28=(NAMED_UNIT(*)SI_UNIT($,.STERADIAN.)SOLID_ANGLE_UNIT());
#32=(LENGTH_UNIT()NAMED_UNIT(*)SI_UNIT(.MILLI.,.METRE.));
#34=UNCERTAINTY_MEASURE_WITH_UNIT(LENGTH_MEASURE(0.010000000000000),#32,'DISTANCE_ACCURACY_VALUE','');
#36=(GEOMETRIC_REPRESENTATION_CONTEXT(3)GLOBAL_UNCERTAINTY_ASSIGNED_CONTEXT((#34))GLOBAL_UNIT_ASSIGNED_CONTEXT((#24,#28,#32))REPRESENTATION_CONTEXT('None','None'));
#37=AXIS2_PLACEMENT_3D('',#38,#39,#40);
#38=CARTESIAN_POINT('',(0.0,0.0,0.0));
#39=DIRECTION('',(0.0,0.0,1.0));
#40=DIRECTION('',(1.0,0.0,0.0));
#41=SHAPE_REPRESENTATION('',(#37),#36);
#42=PRODUCT_DEFINITION_SHAPE('','',#12);
#43=SHAPE_DEFINITION_REPRESENTATION(#42,#41);
#49=(NAMED_UNIT(*)PLANE_ANGLE_UNIT()SI_UNIT($,.RADIAN.));
#50=DIMENSIONAL_EXPONENTS(0.0,0.0,0.0,0.0,0.0,0.0,0.0);
#51=PLANE_ANGLE_MEASURE_WITH_UNIT(PLANE_ANGLE_MEASURE(0.017453292500000),#49);
#55=(CONVERSION_BASED_UNIT('DEGREE',#51)NAMED_UNIT(#50)PLANE_ANGLE_UNIT());
#59=(NAMED_UNIT(*)SI_UNIT($,.STERADIAN.)SOLID_ANGLE_UNIT());
#63=(LENGTH_UNIT()NAMED_UNIT(*)SI_UNIT(.MILLI.,.METRE.));
#65=UNCERTAINTY_MEASURE_WITH_UNIT(LENGTH_MEASURE(0.000001000000000),#63,'DISTANCE_ACCURACY_VALUE','');
#67=(GEOMETRIC_REPRESENTATION_CONTEXT(3)GLOBAL_UNCERTAINTY_ASSIGNED_CONTEXT((#65))GLOBAL_UNIT_ASSIGNED_CONTEXT((#55,#59,#63))REPRESENTATION_CONTEXT('','3D'));
#68=CARTESIAN_POINT('',(-3.552714E-015,23.620999999999992,10.250000000000004));
#69=CARTESIAN_POINT('',(4.999999999999993,23.620999999999992,10.250000000000004));
#70=CARTESIAN_POINT('',(-3.552714E-015,23.620999999999992,8.629000000000005));
#71=CARTESIAN_POINT('',(4.999999999999993,23.620999999999992,8.629000000000005));
#72=CARTESIAN_POINT('',(-3.552714E-015,21.999999999999993,8.629000000000005));
#73=CARTESIAN_POINT('',(4.999999999999993,21.999999999999993,8.629000000000005));
#74=CARTESIAN_POINT('',(-3.552714E-015,20.378999999999994,8.629000000000005));
#75=CARTESIAN_POINT('',(4.999999999999993,20.378999999999994,8.629000000000005));
#76=CARTESIAN_POINT('',(-3.552714E-015,20.378999999999994,10.250000000000004));
#77=CARTESIAN_POINT('',(4.999999999999993,20.378999999999994,10.250000000000004));
#78=CARTESIAN_POINT('',(-3.552714E-015,20.378999999999994,11.871000000000004));
#79=CARTESIAN_POINT('',(4.999999999999993,20.378999999999994,11.871000000000004));
#80=CARTESIAN_POINT('',(-3.552714E-015,21.999999999999993,11.871000000000002));
#81=CARTESIAN_POINT('',(4.999999999999993,21.999999999999993,11.871000000000002));
#82=CARTESIAN_POINT('',(-3.552714E-015,23.620999999999992,11.871000000000004));
#83=CARTESIAN_POINT('',(4.999999999999993,23.620999999999992,11.871000000000004));
#84=CARTESIAN_POINT('',(-3.552714E-015,23.620999999999992,10.250000000000004));
#85=CARTESIAN_POINT('',(4.999999999999993,23.620999999999992,10.250000000000004));
#93=(BOUNDED_SURFACE()B_SPLINE_SURFACE(1,2,((#68,#70,#72,#74,#76,#78,#80,#82,#84),(#69,#71,#73,#75,#77,#79,#81,#83,#85)),.UNSPECIFIED.,.F.,.T.,.U.)B_SPLINE_SURFACE_WITH_KNOTS((2,2),(3,2,2,2,3),(-2.467612584824183,0.616903146206043),(0.0,2.546260845734528,5.092521691469055,7.638782537203583,10.185043382938110),.UNSPECIFIED.)GEOMETRIC_REPRESENTATION_ITEM()RATIONAL_B_SPLINE_SURFACE(((1.0,0.707106781186548,1.0,0.707106781186548,1.0,0.707106781186548,1.0,0.707106781186548,1.0),(1.0,0.707106781186548,1.0,0.707106781186548,1.0,0.707106781186548,1.0,0.707106781186548,1.0)))REPRESENTATION_ITEM('')SURFACE());
#94=CARTESIAN_POINT('',(4.999999999999993,23.620999999999995,10.250000000000004));
#95=VERTEX_POINT('',#94);
#96=CARTESIAN_POINT('',(4.999999999999993,21.999999999999993,10.250000000000004));
#97=DIRECTION('',(-1.0,0.0,0.0));
#98=DIRECTION('',(0.0,-1.0,0.0));
#99=AXIS2_PLACEMENT_3D('',#96,#97,#98);
#100=CIRCLE('',#99,1.621000000000000);
#101=EDGE_CURVE('',#95,#95,#100,.T.);
#102=ORIENTED_EDGE('',*,*,#101,.F.);
#103=EDGE_LOOP('',(#102));
#104=FACE_OUTER_BOUND('',#103,.T.);
#105=CARTESIAN_POINT('',(-2.488776E-015,20.378999999999998,10.250000000000004));
#106=VERTEX_POINT('',#105);
#107=CARTESIAN_POINT('',(-2.775558E-015,21.999999999999993,10.250000000000004));
#108=DIRECTION('',(1.0,0.0,0.0));
#109=DIRECTION('',(0.0,-1.0,0.0));
#110=AXIS2_PLACEMENT_3D('',#107,#108,#109);
#111=CIRCLE('',#110,1.621000000000000);
#112=EDGE_CURVE('',#106,#106,#111,.T.);
#113=ORIENTED_EDGE('',*,*,#112,.F.);
#114=EDGE_LOOP('',(#113));
#115=FACE_BOUND('',#114,.T.);
#116=ADVANCED_FACE('',(#104,#115),#93,.F.);
#117=CARTESIAN_POINT('',(-3.552714E-015,23.620999999999992,-10.250000000000000));
#118=CARTESIAN_POINT('',(4.999999999999993,23.620999999999992,-10.250000000000000));
#119=CARTESIAN_POINT('',(-3.552714E-015,23.620999999999992,-11.870999999999999));
#120=CARTESIAN_POINT('',(4.999999999999993,23.620999999999992,-11.870999999999999));
#121=CARTESIAN_POINT('',(-3.552714E-015,21.999999999999993,-11.870999999999999));
#122=CARTESIAN_POINT('',(4.999999999999993,21.999999999999993,-11.870999999999999));
#123=CARTESIAN_POINT('',(-3.552714E-015,20.378999999999994,-11.870999999999999));
#124=CARTESIAN_POINT('',(4.999999999999993,20.378999999999994,-11.870999999999999));
#125=CARTESIAN_POINT('',(-3.552714E-015,20.378999999999994,-10.250000000000000));
#126=CARTESIAN_POINT('',(4.999999999999993,20.378999999999994,-10.250000000000000));
#127=CARTESIAN_POINT('',(-3.552714E-015,20.378999999999994,-8.629000000000001));
#128=CARTESIAN_POINT('',(4.999999999999993,20.378999999999994,-8.629000000000001));
#129=CARTESIAN_POINT('',(-3.552714E-015,21.999999999999993,-8.629000000000001));
#130=CARTESIAN_POINT('',(4.999999999999993,21.999999999999993,-8.629000000000001));
#131=CARTESIAN_POINT('',(-3.552714E-015,23.620999999999992,-8.629000000000001));
#132=CARTESIAN_POINT('',(4.999999999999993,23.620999999999992,-8.629000000000001));
#133=CARTESIAN_POINT('',(-3.552714E-015,23.620999999999992,-10.250000000000000));
#134=CARTESIAN_POINT('',(4.999999999999993,23.620999999999992,-10.250000000000000));
#142=(BOUNDED_SURFACE()B_SPLINE_SURFACE(1,2,((#117,#119,#121,#123,#125,#127,#129,#131,#133),(#118,#120,#122,#124,#126,#128,#130,#132,#134)),.UNSPECIFIED.,.F.,.T.,.U.)B_SPLINE_SURFACE_WITH_KNOTS((2,2),(3,2,2,2,3),(-2.467612584824183,0.616903146206043),(0.0,2.546260845734528,5.092521691469055,7.638782537203583,10.185043382938110),.UNSPECIFIED.)GEOMETRIC_REPRESENTATION_ITEM()RATIONAL_B_SPLINE_SURFACE(((1.0,0.707106781186548,1.0,0.707106781186548,1.0,0.707106781186548,1.0,0.707106781186548,1.0),(1.0,0.707106781186548,1.0,0.707106781186548,1.0,0.707106781186548,1.0,0.707106781186548,1.0)))REPRESENTATION_ITEM('')SURFACE());
#143=CARTESIAN_POINT('',(4.999999999999993,23.620999999999995,-10.250000000000000));
#144=VERTEX_POINT('',#143);
#145=CARTESIAN_POINT('',(4.999999999999993,21.999999999999993,-10.250000000000000));
#146=DIRECTION('',(-1.0,0.0,0.0));
#147=DIRECTION('',(0.0,-1.0,0.0));
#148=AXIS2_PLACEMENT_3D('',#145,#146,#147);
#149=CIRCLE('',#148,1.621000000000000);
#150=EDGE_CURVE('',#144,#144,#149,.T.);
#151=ORIENTED_EDGE('',*,*,#150,.F.);
#152=EDGE_LOOP('',(#151));
#153=FACE_OUTER_BOUND('',#152,.T.);
#154=CARTESIAN_POINT('',(-2.488776E-015,20.378999999999998,-10.250000000000000));
#155=VERTEX_POINT('',#154);
#156=CARTESIAN_POINT('',(-2.775558E-015,21.999999999999993,-10.250000000000000));
#157=DIRECTION('',(1.0,0.0,0.0));
#158=DIRECTION('',(0.0,-1.0,0.0));
#159=AXIS2_PLACEMENT_3D('',#156,#157,#158);
#160=CIRCLE('',#159,1.621000000000000);
#161=EDGE_CURVE('',#155,#155,#160,.T.);
#162=ORIENTED_EDGE('',*,*,#161,.F.);
#163=EDGE_LOOP('',(#162));
#164=FACE_BOUND('',#163,.T.);
#165=ADVANCED_FACE('',(#153,#164),#142,.F.);
#166=CARTESIAN_POINT('',(-4.440892E-015,37.621000000000002,10.250000000000004));
#167=CARTESIAN_POINT('',(4.999999999999992,37.621000000000002,10.250000000000004));
#168=CARTESIAN_POINT('',(-4.440892E-015,37.621000000000002,8.629000000000001));
#169=CARTESIAN_POINT('',(4.999999999999992,37.621000000000002,8.629000000000001));
#170=CARTESIAN_POINT('',(-4.440892E-015,36.0,8.629000000000001));
#171=CARTESIAN_POINT('',(4.999999999999992,36.0,8.629000000000001));
#172=CARTESIAN_POINT('',(-4.440892E-015,34.378999999999998,8.629000000000001));
#173=CARTESIAN_POINT('',(4.999999999999992,34.378999999999998,8.629000000000001));
#174=CARTESIAN_POINT('',(-4.440892E-015,34.378999999999998,10.250000000000004));
#175=CARTESIAN_POINT('',(4.999999999999992,34.378999999999998,10.250000000000004));
#176=CARTESIAN_POINT('',(-4.440892E-015,34.378999999999998,11.871000000000006));
#177=CARTESIAN_POINT('',(4.999999999999992,34.378999999999998,11.871000000000006));
#178=CARTESIAN_POINT('',(-4.440892E-015,36.0,11.871000000000006));
#179=CARTESIAN_POINT('',(4.999999999999992,36.0,11.871000000000006));
#180=CARTESIAN_POINT('',(-4.440892E-015,37.621000000000002,11.871000000000006));
#181=CARTESIAN_POINT('',(4.999999999999992,37.621000000000002,11.871000000000006));
#182=CARTESIAN_POINT('',(-4.440892E-015,37.621000000000002,10.250000000000004));
#183=CARTESIAN_POINT('',(4.999999999999992,37.621000000000002,10.250000000000004));
#191=(BOUNDED_SURFACE()B_SPLINE_SURFACE(1,2,((#166,#168,#170,#172,#174,#176,#178,#180,#182),(#167,#169,#171,#173,#175,#177,#179,#181,#183)),.UNSPECIFIED.,.F.,.T.,.U.)B_SPLINE_SURFACE_WITH_KNOTS((2,2),(3,2,2,2,3),(-2.467612584824182,0.616903146206043),(0.0,2.546260845734528,5.092521691469055,7.638782537203583,10.185043382938110),.UNSPECIFIED.)GEOMETRIC_REPRESENTATION_ITEM()RATIONAL_B_SPLINE_SURFACE(((1.0,0.707106781186548,1.0,0.707106781186548,1.0,0.707106781186548,1.0,0.707106781186548,1.0),(1.0,0.707106781186548,1.0,0.707106781186548,1.0,0.707106781186548,1.0,0.707106781186548,1.0)))REPRESENTATION_ITEM('')SURFACE());
#192=CARTESIAN_POINT('',(4.999999999999992,37.620999999999995,10.250000000000004));
#193=VERTEX_POINT('',#192);
#194=CARTESIAN_POINT('',(4.999999999999992,36.0,10.250000000000004));
#195=DIRECTION('',(-1.0,0.0,0.0));
#196=DIRECTION('',(0.0,-1.0,0.0));
#197=AXIS2_PLACEMENT_3D('',#194,#195,#196);
#198=CIRCLE('',#197,1.621000000000000);
#199=EDGE_CURVE('',#193,#193,#198,.T.);
#200=ORIENTED_EDGE('',*,*,#199,.F.);
#201=EDGE_LOOP('',(#200));
#202=FACE_OUTER_BOUND('',#201,.T.);
#203=CARTESIAN_POINT('',(-4.198519E-015,34.378999999999998,10.250000000000004));
#204=VERTEX_POINT('',#203);
#205=CARTESIAN_POINT('',(-4.440892E-015,36.0,10.250000000000004));
#206=DIRECTION('',(1.0,0.0,0.0));
#207=DIRECTION('',(0.0,-1.0,0.0));
#208=AXIS2_PLACEMENT_3D('',#205,#206,#207);
#209=CIRCLE('',#208,1.621000000000000);
#210=EDGE_CURVE('',#204,#204,#209,.T.);
#211=ORIENTED_EDGE('',*,*,#210,.F.);
#212=EDGE_LOOP('',(#211));
#213=FACE_BOUND('',#212,.T.);
#214=ADVANCED_FACE('',(#202,#213),#191,.F.);
#215=CARTESIAN_POINT('',(-4.440892E-015,37.621000000000002,-10.250000000000000));
#216=CARTESIAN_POINT('',(4.999999999999992,37.621000000000002,-10.250000000000000));
#217=CARTESIAN_POINT('',(-4.440892E-015,37.621000000000002,-11.871000000000004));
#218=CARTESIAN_POINT('',(4.999999999999992,37.621000000000002,-11.871000000000004));
#219=CARTESIAN_POINT('',(-4.440892E-015,36.0,-11.871000000000002));
#220=CARTESIAN_POINT('',(4.999999999999992,36.0,-11.871000000000002));
#221=CARTESIAN_POINT('',(-4.440892E-015,34.378999999999998,-11.871000000000004));
#222=CARTESIAN_POINT('',(4.999999999999992,34.378999999999998,-11.871000000000004));
#223=CARTESIAN_POINT('',(-4.440892E-015,34.378999999999998,-10.250000000000000));
#224=CARTESIAN_POINT('',(4.999999999999992,34.378999999999998,-10.250000000000000));
#225=CARTESIAN_POINT('',(-4.440892E-015,34.378999999999998,-8.628999999999998));
#226=CARTESIAN_POINT('',(4.999999999999992,34.378999999999998,-8.628999999999998));
#227=CARTESIAN_POINT('',(-4.440892E-015,36.0,-8.628999999999998));
#228=CARTESIAN_POINT('',(4.999999999999992,36.0,-8.628999999999998));
#229=CARTESIAN_POINT('',(-4.440892E-015,37.621000000000002,-8.628999999999998));
#230=CARTESIAN_POINT('',(4.999999999999992,37.621000000000002,-8.628999999999998));
#231=CARTESIAN_POINT('',(-4.440892E-015,37.621000000000002,-10.250000000000000));
#232=CARTESIAN_POINT('',(4.999999999999992,37.621000000000002,-10.250000000000000));
#240=(BOUNDED_SURFACE()B_SPLINE_SURFACE(1,2,((#215,#217,#219,#221,#223,#225,#227,#229,#231),(#216,#218,#220,#222,#224,#226,#228,#230,#232)),.UNSPECIFIED.,.F.,.T.,.U.)B_SPLINE_SURFACE_WITH_KNOTS((2,2),(3,2,2,2,3),(-2.467612584824182,0.616903146206043),(0.0,2.546260845734528,5.092521691469055,7.638782537203583,10.185043382938110),.UNSPECIFIED.)GEOMETRIC_REPRESENTATION_ITEM()RATIONAL_B_SPLINE_SURFACE(((1.0,0.707106781186548,1.0,0.707106781186548,1.0,0.707106781186548,1.0,0.707106781186548,1.0),(1.0,0.707106781186548,1.0,0.707106781186548,1.0,0.707106781186548,1.0,0.707106781186548,1.0)))REPRESENTATION_ITEM('')SURFACE());
#241=CARTESIAN_POINT('',(4.999999999999992,37.620999999999995,-10.250000000000000));
#242=VERTEX_POINT('',#241);
#243=CARTESIAN_POINT('',(4.999999999999992,36.0,-10.250000000000000));
#244=DIRECTION('',(-1.0,0.0,0.0));
#245=DIRECTION('',(0.0,-1.0,0.0));
#246=AXIS2_PLACEMENT_3D('',#243,#244,#245);
#247=CIRCLE('',#246,1.621000000000000);
#248=EDGE_CURVE('',#242,#242,#247,.T.);
#249=ORIENTED_EDGE('',*,*,#248,.F.);
#250=EDGE_LOOP('',(#249));
#251=FACE_OUTER_BOUND('',#250,.T.);
#252=CARTESIAN_POINT('',(-4.198519E-015,34.378999999999998,-10.250000000000000));
#253=VERTEX_POINT('',#252);
#254=CARTESIAN_POINT('',(-4.440892E-015,36.0,-10.250000000000000));
#255=DIRECTION('',(1.0,0.0,0.0));
#256=DIRECTION('',(0.0,-1.0,0.0));
#257=AXIS2_PLACEMENT_3D('',#254,#255,#256);
#258=CIRCLE('',#257,1.621000000000000);
#259=EDGE_CURVE('',#253,#253,#258,.T.);
#260=ORIENTED_EDGE('',*,*,#259,.F.);
#261=EDGE_LOOP('',(#260));
#262=FACE_BOUND('',#261,.T.);
#263=ADVANCED_FACE('',(#251,#262),#240,.F.);
#264=CARTESIAN_POINT('',(18.0,0.0,-5.510911E-016));
#265=CARTESIAN_POINT('',(17.999999999999996,5.000000000000007,-5.510911E-016));
#266=CARTESIAN_POINT('',(18.0,1.708037E-031,-4.500000000000000));
#267=CARTESIAN_POINT('',(17.999999999999996,5.000000000000007,-4.500000000000000));
#268=CARTESIAN_POINT('',(22.500000000000000,1.708037E-031,-4.500000000000000));
#269=CARTESIAN_POINT('',(22.499999999999996,5.000000000000007,-4.500000000000000));
#270=CARTESIAN_POINT('',(27.0,1.708037E-031,-4.499999999999998));
#271=CARTESIAN_POINT('',(26.999999999999996,5.000000000000007,-4.499999999999998));
#272=CARTESIAN_POINT('',(27.0,0.0,5.510911E-016));
#273=CARTESIAN_POINT('',(26.999999999999996,5.000000000000007,5.510911E-016));
#274=CARTESIAN_POINT('',(27.0,-1.708037E-031,4.500000000000000));
#275=CARTESIAN_POINT('',(26.999999999999996,5.000000000000007,4.500000000000000));
#276=CARTESIAN_POINT('',(22.500000000000000,-1.708037E-031,4.500000000000000));
#277=CARTESIAN_POINT('',(22.499999999999996,5.000000000000007,4.500000000000000));
#278=CARTESIAN_POINT('',(18.0,-1.708037E-031,4.499999999999998));
#279=CARTESIAN_POINT('',(17.999999999999996,5.000000000000007,4.499999999999998));
#280=CARTESIAN_POINT('',(18.0,0.0,-5.510911E-016));
#281=CARTESIAN_POINT('',(17.999999999999996,5.000000000000007,-5.510911E-016));
#289=(BOUNDED_SURFACE()B_SPLINE_SURFACE(1,2,((#264,#266,#268,#270,#272,#274,#276,#278,#280),(#265,#267,#269,#271,#273,#275,#277,#279,#281)),.UNSPECIFIED.,.F.,.T.,.U.)B_SPLINE_SURFACE_WITH_KNOTS((2,2),(3,2,2,2,3),(-14.572085609560004,-13.460974498448891),(0.0,7.068583470577035,14.137166941154069,21.205750411731103,28.274333882308138),.UNSPECIFIED.)GEOMETRIC_REPRESENTATION_ITEM()RATIONAL_B_SPLINE_SURFACE(((1.0,0.707106781186548,1.0,0.707106781186548,1.0,0.707106781186548,1.0,0.707106781186548,1.0),(1.0,0.707106781186548,1.0,0.707106781186548,1.0,0.707106781186548,1.0,0.707106781186548,1.0)))REPRESENTATION_ITEM('')SURFACE());
#290=CARTESIAN_POINT('',(17.999999999999996,5.000000000000008,-5.510729E-016));
#291=VERTEX_POINT('',#290);
#292=CARTESIAN_POINT('',(22.499999999999996,5.000000000000009,0.0));
#293=DIRECTION('',(0.0,-1.0,0.0));
#294=DIRECTION('',(1.0,0.0,0.0));
#295=AXIS2_PLACEMENT_3D('',#292,#293,#294);
#296=CIRCLE('',#295,4.500000000000000);
#297=EDGE_CURVE('',#291,#291,#296,.T.);
#298=ORIENTED_EDGE('',*,*,#297,.F.);
#299=EDGE_LOOP('',(#298));
#300=FACE_OUTER_BOUND('',#299,.T.);
#301=CARTESIAN_POINT('',(27.0,8.368306E-015,0.0));
#302=VERTEX_POINT('',#301);
#303=CARTESIAN_POINT('',(22.500000000000000,8.881784E-015,0.0));
#304=DIRECTION('',(0.0,1.0,0.0));
#305=DIRECTION('',(1.0,0.0,0.0));
#306=AXIS2_PLACEMENT_3D('',#303,#304,#305);
#307=CIRCLE('',#306,4.500000000000000);
#308=EDGE_CURVE('',#302,#302,#307,.T.);
#309=ORIENTED_EDGE('',*,*,#308,.F.);
#310=EDGE_LOOP('',(#309));
#311=FACE_BOUND('',#310,.T.);
#312=ADVANCED_FACE('',(#300,#311),#289,.F.);
#313=CARTESIAN_POINT('',(7.968749999999998,17.968750000000000,-15.0));
#314=DIRECTION('',(0.0,0.0,1.0));
#315=DIRECTION('',(1.0,0.0,0.0));
#316=AXIS2_PLACEMENT_3D('',#313,#314,#315);
#317=PLANE('',#316);
#318=CARTESIAN_POINT('',(0.0,0.0,-15.0));
#319=VERTEX_POINT('',#318);
#320=CARTESIAN_POINT('',(30.0,9.298118E-015,-15.0));
#321=VERTEX_POINT('',#320);
#322=CARTESIAN_POINT('',(0.0,0.0,-15.0));
#323=DIRECTION('',(1.0,0.0,0.0));
#324=VECTOR('',#323,30.0);
#325=LINE('',#322,#324);
#326=EDGE_CURVE('',#319,#321,#325,.T.);
#327=ORIENTED_EDGE('',*,*,#326,.F.);
#328=CARTESIAN_POINT('',(-6.106227E-015,50.0,-15.0));
#329=VERTEX_POINT('',#328);
#330=CARTESIAN_POINT('',(-6.106227E-015,50.0,-15.0));
#331=DIRECTION('',(0.0,-1.0,0.0));
#332=VECTOR('',#331,50.0);
#333=LINE('',#330,#332);
#334=EDGE_CURVE('',#329,#319,#333,.T.);
#335=ORIENTED_EDGE('',*,*,#334,.F.);
#336=CARTESIAN_POINT('',(4.999999999999990,50.0,-15.0));
#337=VERTEX_POINT('',#336);
#338=CARTESIAN_POINT('',(4.999999999999990,50.0,-15.0));
#339=DIRECTION('',(-1.0,0.0,0.0));
#340=VECTOR('',#339,4.999999999999996);
#341=LINE('',#338,#340);
#342=EDGE_CURVE('',#337,#329,#341,.T.);
#343=ORIENTED_EDGE('',*,*,#342,.F.);
#344=CARTESIAN_POINT('',(5.000000000000001,5.000000000000001,-15.0));
#345=VERTEX_POINT('',#344);
#346=CARTESIAN_POINT('',(5.000000000000002,5.0,-15.0));
#347=DIRECTION('',(0.0,1.0,0.0));
#348=VECTOR('',#347,45.0);
#349=LINE('',#346,#348);
#350=EDGE_CURVE('',#345,#337,#349,.T.);
#351=ORIENTED_EDGE('',*,*,#350,.F.);
#352=CARTESIAN_POINT('',(30.0,5.000000000000012,-15.0));
#353=VERTEX_POINT('',#352);
#354=CARTESIAN_POINT('',(30.0,5.000000000000012,-15.0));
#355=DIRECTION('',(-1.0,0.0,0.0));
#356=VECTOR('',#355,25.0);
#357=LINE('',#354,#356);
#358=EDGE_CURVE('',#353,#345,#357,.T.);
#359=ORIENTED_EDGE('',*,*,#358,.F.);
#360=CARTESIAN_POINT('',(30.0,8.881784E-015,-15.0));
#361=DIRECTION('',(0.0,1.0,0.0));
#362=VECTOR('',#361,5.000000000000004);
#363=LINE('',#360,#362);
#364=EDGE_CURVE('',#321,#353,#363,.T.);
#365=ORIENTED_EDGE('',*,*,#364,.F.);
#366=EDGE_LOOP('',(#327,#335,#343,#351,#359,#365));
#367=FACE_OUTER_BOUND('',#366,.T.);
#368=ADVANCED_FACE('',(#367),#317,.F.);
#369=CARTESIAN_POINT('',(-6.106227E-015,50.0,0.0));
#370=DIRECTION('',(0.0,1.0,0.0));
#371=DIRECTION('',(0.0,0.0,1.0));
#372=AXIS2_PLACEMENT_3D('',#369,#370,#371);
#373=PLANE('',#372);
#374=CARTESIAN_POINT('',(-6.106227E-015,50.0,15.0));
#375=VERTEX_POINT('',#374);
#376=CARTESIAN_POINT('',(4.999999999999990,50.0,15.0));
#377=VERTEX_POINT('',#376);
#378=CARTESIAN_POINT('',(-6.106227E-015,50.0,15.0));
#379=DIRECTION('',(1.0,0.0,0.0));
#380=VECTOR('',#379,4.999999999999996);
#381=LINE('',#378,#380);
#382=EDGE_CURVE('',#375,#377,#381,.T.);
#383=ORIENTED_EDGE('',*,*,#382,.T.);
#384=CARTESIAN_POINT('',(4.999999999999990,50.0,15.0));
#385=DIRECTION('',(0.0,0.0,-1.0));
#386=VECTOR('',#385,30.0);
#387=LINE('',#384,#386);
#388=EDGE_CURVE('',#377,#337,#387,.T.);
#389=ORIENTED_EDGE('',*,*,#388,.T.);
#390=ORIENTED_EDGE('',*,*,#342,.T.);
#391=CARTESIAN_POINT('',(-6.106227E-015,50.0,15.0));
#392=DIRECTION('',(0.0,0.0,-1.0));
#393=VECTOR('',#392,30.0);
#394=LINE('',#391,#393);
#395=EDGE_CURVE('',#375,#329,#394,.T.);
#396=ORIENTED_EDGE('',*,*,#395,.F.);
#397=EDGE_LOOP('',(#383,#389,#390,#396));
#398=FACE_OUTER_BOUND('',#397,.T.);
#399=ADVANCED_FACE('',(#398),#373,.T.);
#400=CARTESIAN_POINT('',(4.999999999999990,50.0,0.0));
#401=DIRECTION('',(1.0,0.0,0.0));
#402=DIRECTION('',(0.0,0.0,-1.0));
#403=AXIS2_PLACEMENT_3D('',#400,#401,#402);
#404=PLANE('',#403);
#405=CARTESIAN_POINT('',(5.000000000000001,5.000000000000001,15.0));
#406=VERTEX_POINT('',#405);
#407=CARTESIAN_POINT('',(4.999999999999990,50.0,15.0));
#408=DIRECTION('',(0.0,-1.0,0.0));
#409=VECTOR('',#408,45.0);
#410=LINE('',#407,#409);
#411=EDGE_CURVE('',#377,#406,#410,.T.);
#412=ORIENTED_EDGE('',*,*,#411,.T.);
#413=CARTESIAN_POINT('',(5.000000000000001,5.000000000000001,15.0));
#414=DIRECTION('',(0.0,0.0,-1.0));
#415=VECTOR('',#414,30.0);
#416=LINE('',#413,#415);
#417=EDGE_CURVE('',#406,#345,#416,.T.);
#418=ORIENTED_EDGE('',*,*,#417,.T.);
#419=ORIENTED_EDGE('',*,*,#350,.T.);
#420=ORIENTED_EDGE('',*,*,#388,.F.);
#421=EDGE_LOOP('',(#412,#418,#419,#420));
#422=FACE_OUTER_BOUND('',#421,.T.);
#423=ORIENTED_EDGE('',*,*,#101,.T.);
#424=EDGE_LOOP('',(#423));
#425=FACE_BOUND('',#424,.T.);
#426=ORIENTED_EDGE('',*,*,#150,.T.);
#427=EDGE_LOOP('',(#426));
#428=FACE_BOUND('',#427,.T.);
#429=ORIENTED_EDGE('',*,*,#199,.T.);
#430=EDGE_LOOP('',(#429));
#431=FACE_BOUND('',#430,.T.);
#432=ORIENTED_EDGE('',*,*,#248,.T.);
#433=EDGE_LOOP('',(#432));
#434=FACE_BOUND('',#433,.T.);
#435=ADVANCED_FACE('',(#422,#425,#428,#431,#434),#404,.T.);
#436=CARTESIAN_POINT('',(5.000000000000001,5.000000000000001,0.0));
#437=DIRECTION('',(0.0,1.0,0.0));
#438=DIRECTION('',(0.0,0.0,1.0));
#439=AXIS2_PLACEMENT_3D('',#436,#437,#438);
#440=PLANE('',#439);
#441=CARTESIAN_POINT('',(30.0,5.000000000000012,15.0));
#442=VERTEX_POINT('',#441);
#443=CARTESIAN_POINT('',(5.000000000000001,5.000000000000001,15.0));
#444=DIRECTION('',(1.0,0.0,0.0));
#445=VECTOR('',#444,25.0);
#446=LINE('',#443,#445);
#447=EDGE_CURVE('',#406,#442,#446,.T.);
#448=ORIENTED_EDGE('',*,*,#447,.T.);
#449=CARTESIAN_POINT('',(30.0,5.000000000000012,15.0));
#450=DIRECTION('',(0.0,0.0,-1.0));
#451=VECTOR('',#450,30.0);
#452=LINE('',#449,#451);
#453=EDGE_CURVE('',#442,#353,#452,.T.);
#454=ORIENTED_EDGE('',*,*,#453,.T.);
#455=ORIENTED_EDGE('',*,*,#358,.T.);
#456=ORIENTED_EDGE('',*,*,#417,.F.);
#457=EDGE_LOOP('',(#448,#454,#455,#456));
#458=FACE_OUTER_BOUND('',#457,.T.);
#459=ORIENTED_EDGE('',*,*,#297,.T.);
#460=EDGE_LOOP('',(#459));
#461=FACE_BOUND('',#460,.T.);
#462=ADVANCED_FACE('',(#458,#461),#440,.T.);
#463=CARTESIAN_POINT('',(30.0,5.000000000000012,0.0));
#464=DIRECTION('',(1.0,0.0,0.0));
#465=DIRECTION('',(0.0,0.0,-1.0));
#466=AXIS2_PLACEMENT_3D('',#463,#464,#465);
#467=PLANE('',#466);
#468=CARTESIAN_POINT('',(30.0,9.298118E-015,15.0));
#469=VERTEX_POINT('',#468);
#470=CARTESIAN_POINT('',(30.0,5.000000000000012,15.0));
#471=DIRECTION('',(0.0,-1.0,0.0));
#472=VECTOR('',#471,5.000000000000004);
#473=LINE('',#470,#472);
#474=EDGE_CURVE('',#442,#469,#473,.T.);
#475=ORIENTED_EDGE('',*,*,#474,.T.);
#476=CARTESIAN_POINT('',(30.0,9.298118E-015,15.0));
#477=DIRECTION('',(0.0,0.0,-1.0));
#478=VECTOR('',#477,30.0);
#479=LINE('',#476,#478);
#480=EDGE_CURVE('',#469,#321,#479,.T.);
#481=ORIENTED_EDGE('',*,*,#480,.T.);
#482=ORIENTED_EDGE('',*,*,#364,.T.);
#483=ORIENTED_EDGE('',*,*,#453,.F.);
#484=EDGE_LOOP('',(#475,#481,#482,#483));
#485=FACE_OUTER_BOUND('',#484,.T.);
#486=ADVANCED_FACE('',(#485),#467,.T.);
#487=CARTESIAN_POINT('',(30.0,9.298118E-015,0.0));
#488=DIRECTION('',(0.0,-1.0,0.0));
#489=DIRECTION('',(0.0,0.0,-1.0));
#490=AXIS2_PLACEMENT_3D('',#487,#488,#489);
#491=PLANE('',#490);
#492=CARTESIAN_POINT('',(0.0,0.0,15.0));
#493=VERTEX_POINT('',#492);
#494=CARTESIAN_POINT('',(30.0,9.298118E-015,15.0));
#495=DIRECTION('',(-1.0,0.0,0.0));
#496=VECTOR('',#495,30.0);
#497=LINE('',#494,#496);
#498=EDGE_CURVE('',#469,#493,#497,.T.);
#499=ORIENTED_EDGE('',*,*,#498,.T.);
#500=CARTESIAN_POINT('',(0.0,0.0,-15.0));
#501=DIRECTION('',(0.0,0.0,1.0));
#502=VECTOR('',#501,30.0);
#503=LINE('',#500,#502);
#504=EDGE_CURVE('',#319,#493,#503,.T.);
#505=ORIENTED_EDGE('',*,*,#504,.F.);
#506=ORIENTED_EDGE('',*,*,#326,.T.);
#507=ORIENTED_EDGE('',*,*,#480,.F.);
#508=EDGE_LOOP('',(#499,#505,#506,#507));
#509=FACE_OUTER_BOUND('',#508,.T.);
#510=ORIENTED_EDGE('',*,*,#308,.T.);
#511=EDGE_LOOP('',(#510));
#512=FACE_BOUND('',#511,.T.);
#513=ADVANCED_FACE('',(#509,#512),#491,.T.);
#514=CARTESIAN_POINT('',(0.0,0.0,0.0));
#515=DIRECTION('',(-1.0,0.0,0.0));
#516=DIRECTION('',(0.0,0.0,1.0));
#517=AXIS2_PLACEMENT_3D('',#514,#515,#516);
#518=PLANE('',#517);
#519=CARTESIAN_POINT('',(0.0,0.0,15.0));
#520=DIRECTION('',(0.0,1.0,0.0));
#521=VECTOR('',#520,50.0);
#522=LINE('',#519,#521);
#523=EDGE_CURVE('',#493,#375,#522,.T.);
#524=ORIENTED_EDGE('',*,*,#523,.T.);
#525=ORIENTED_EDGE('',*,*,#395,.T.);
#526=ORIENTED_EDGE('',*,*,#334,.T.);
#527=ORIENTED_EDGE('',*,*,#504,.T.);
#528=EDGE_LOOP('',(#524,#525,#526,#527));
#529=FACE_OUTER_BOUND('',#528,.T.);
#530=ORIENTED_EDGE('',*,*,#112,.T.);
#531=EDGE_LOOP('',(#530));
#532=FACE_BOUND('',#531,.T.);
#533=ORIENTED_EDGE('',*,*,#161,.T.);
#534=EDGE_LOOP('',(#533));
#535=FACE_BOUND('',#534,.T.);
#536=ORIENTED_EDGE('',*,*,#210,.T.);
#537=EDGE_LOOP('',(#536));
#538=FACE_BOUND('',#537,.T.);
#539=ORIENTED_EDGE('',*,*,#259,.T.);
#540=EDGE_LOOP('',(#539));
#541=FACE_BOUND('',#540,.T.);
#542=ADVANCED_FACE('',(#529,#532,#535,#538,#541),#518,.T.);
#543=CARTESIAN_POINT('',(7.968749999999999,17.968750000000000,15.0));
#544=DIRECTION('',(0.0,0.0,1.0));
#545=DIRECTION('',(1.0,0.0,0.0));
#546=AXIS2_PLACEMENT_3D('',#543,#544,#545);
#547=PLANE('',#546);
#548=ORIENTED_EDGE('',*,*,#382,.F.);
#549=ORIENTED_EDGE('',*,*,#523,.F.);
#550=ORIENTED_EDGE('',*,*,#498,.F.);
#551=ORIENTED_EDGE('',*,*,#474,.F.);
#552=ORIENTED_EDGE('',*,*,#447,.F.);
#553=ORIENTED_EDGE('',*,*,#411,.F.);
#554=EDGE_LOOP('',(#548,#549,#550,#551,#552,#553));
#555=FACE_OUTER_BOUND('',#554,.T.);
#556=ADVANCED_FACE('',(#555),#547,.T.);
#557=CLOSED_SHELL('',(#116,#165,#214,#263,#312,#368,#399,#435,#462,#486,#513,#542,#556));
#558=MANIFOLD_SOLID_BREP('T\X2\011B\X0\leso1',#557);
#559=COLOUR_RGB('Kov-AL-6061 (matn\X2\FFFD\X0\)',0.847059011459351,0.839215993881226,0.839215993881226);
#560=FILL_AREA_STYLE_COLOUR('Kov-AL-6061 (matn\X2\FFFD\X0\)',#559);
#561=FILL_AREA_STYLE('Kov-AL-6061 (matn\X2\FFFD\X0\)',(#560));
#562=SURFACE_STYLE_FILL_AREA(#561);
#563=SURFACE_SIDE_STYLE('Kov-AL-6061 (matn\X2\FFFD\X0\)',(#562));
#564=SURFACE_STYLE_USAGE(.BOTH.,#563);
#565=PRESENTATION_STYLE_ASSIGNMENT((#564));
#566=STYLED_ITEM('',(#565),#558);
#567=MECHANICAL_DESIGN_GEOMETRIC_PRESENTATION_REPRESENTATION('',(#566),#36);
#568=ADVANCED_BREP_SHAPE_REPRESENTATION('ABSR',(#558),#36);
#569=SHAPE_REPRESENTATION_RELATIONSHIP('SRR','None',#568,#41);
ENDSEC;
END-ISO-10303-21;
