ISO-10303-21;
HEADER;
/* Generated by software containing ST-Developer
 * from STEP Tools, Inc. (www.steptools.com) 
 */

FILE_DESCRIPTION(
/* description */ (''),
/* implementation_level */ '2;1');

FILE_NAME(
/* name */ 
'D:\\VaultPracovni\\Zak\X\E1zky\\P\X2\015900ED\X0\slu\X2\0161\X0\enstv
\X\ED k profil\X2\016F\X0\m\\Modul 20 dr\X\E1\X2\017E\X0\ka 5\\Komplet
a\X2\010D\X0\n\X\ED dopl\X2\0148\X0\ky\\699996\\699996.stp',
/* time_stamp */ '2018-08-11T12:49:57+02:00',
/* author */ ('TraceParts'),
/* organization */ ('Alutec K&K'),
/* preprocessor_version */ 'ST-DEVELOPER v16.1',
/* originating_system */ 'Autodesk Inventor 2016',
/* authorisation */ '');

FILE_SCHEMA (('AUTOMOTIVE_DESIGN { 1 0 10303 214 3 1 1 }'));
ENDSEC;

DATA;
#10=MECHANICAL_DESIGN_GEOMETRIC_PRESENTATION_REPRESENTATION('',(#13),#558);
#11=SHAPE_REPRESENTATION_RELATIONSHIP('SRR','None',#567,#12);
#12=ADVANCED_BREP_SHAPE_REPRESENTATION('',(#14),#557);
#13=STYLED_ITEM('',(#576),#14);
#14=MANIFOLD_SOLID_BREP('Solid1',#314);
#15=PLANE('',#331);
#16=PLANE('',#332);
#17=PLANE('',#333);
#18=PLANE('',#352);
#19=PLANE('',#354);
#20=FACE_OUTER_BOUND('',#37,.T.);
#21=FACE_OUTER_BOUND('',#38,.T.);
#22=FACE_OUTER_BOUND('',#39,.T.);
#23=FACE_OUTER_BOUND('',#40,.T.);
#24=FACE_OUTER_BOUND('',#41,.T.);
#25=FACE_OUTER_BOUND('',#42,.T.);
#26=FACE_OUTER_BOUND('',#43,.T.);
#27=FACE_OUTER_BOUND('',#44,.T.);
#28=FACE_OUTER_BOUND('',#45,.T.);
#29=FACE_OUTER_BOUND('',#46,.T.);
#30=FACE_OUTER_BOUND('',#47,.T.);
#31=FACE_OUTER_BOUND('',#48,.T.);
#32=FACE_OUTER_BOUND('',#49,.T.);
#33=FACE_OUTER_BOUND('',#50,.T.);
#34=FACE_OUTER_BOUND('',#51,.T.);
#35=FACE_OUTER_BOUND('',#52,.T.);
#36=FACE_OUTER_BOUND('',#53,.T.);
#37=EDGE_LOOP('',(#195,#196,#197,#198));
#38=EDGE_LOOP('',(#199,#200,#201,#202));
#39=EDGE_LOOP('',(#203,#204,#205,#206));
#40=EDGE_LOOP('',(#207,#208,#209,#210));
#41=EDGE_LOOP('',(#211,#212,#213,#214));
#42=EDGE_LOOP('',(#215,#216,#217,#218));
#43=EDGE_LOOP('',(#219,#220,#221,#222));
#44=EDGE_LOOP('',(#223,#224,#225,#226));
#45=EDGE_LOOP('',(#227,#228,#229,#230));
#46=EDGE_LOOP('',(#231,#232,#233,#234));
#47=EDGE_LOOP('',(#235,#236,#237,#238));
#48=EDGE_LOOP('',(#239,#240,#241,#242));
#49=EDGE_LOOP('',(#243,#244,#245,#246));
#50=EDGE_LOOP('',(#247,#248,#249,#250));
#51=EDGE_LOOP('',(#251,#252,#253,#254,#255,#256,#257,#258,#259,#260,#261,
#262,#263,#264,#265));
#52=EDGE_LOOP('',(#266,#267,#268,#269,#270,#271,#272,#273,#274,#275,#276,
#277,#278,#279,#280));
#53=EDGE_LOOP('',(#281,#282,#283,#284));
#54=LINE('',#468,#75);
#55=LINE('',#471,#76);
#56=LINE('',#477,#77);
#57=LINE('',#480,#78);
#58=LINE('',#486,#79);
#59=LINE('',#489,#80);
#60=LINE('',#494,#81);
#61=LINE('',#501,#82);
#62=LINE('',#503,#83);
#63=LINE('',#504,#84);
#64=LINE('',#507,#85);
#65=LINE('',#509,#86);
#66=LINE('',#510,#87);
#67=LINE('',#513,#88);
#68=LINE('',#515,#89);
#69=LINE('',#516,#90);
#70=LINE('',#524,#91);
#71=LINE('',#530,#92);
#72=LINE('',#536,#93);
#73=LINE('',#542,#94);
#74=LINE('',#548,#95);
#75=VECTOR('',#363,100.);
#76=VECTOR('',#366,100.);
#77=VECTOR('',#371,100.);
#78=VECTOR('',#374,100.);
#79=VECTOR('',#379,100.);
#80=VECTOR('',#382,100.);
#81=VECTOR('',#387,100.);
#82=VECTOR('',#398,1.16456824136995);
#83=VECTOR('',#399,100.);
#84=VECTOR('',#400,1.16456824136995);
#85=VECTOR('',#403,2.0239217704934);
#86=VECTOR('',#404,100.);
#87=VECTOR('',#405,2.0239217704934);
#88=VECTOR('',#408,0.1);
#89=VECTOR('',#409,100.);
#90=VECTOR('',#410,0.1);
#91=VECTOR('',#421,100.);
#92=VECTOR('',#428,100.);
#93=VECTOR('',#435,100.);
#94=VECTOR('',#442,100.);
#95=VECTOR('',#449,100.);
#96=CIRCLE('',#317,0.499999999999999);
#97=CIRCLE('',#318,0.499999999999999);
#98=CIRCLE('',#320,0.4);
#99=CIRCLE('',#321,0.4);
#100=CIRCLE('',#323,0.4);
#101=CIRCLE('',#324,0.4);
#102=CIRCLE('',#326,60.);
#103=CIRCLE('',#327,60.);
#104=CIRCLE('',#329,0.4);
#105=CIRCLE('',#330,0.4);
#106=CIRCLE('',#335,0.499999999999999);
#107=CIRCLE('',#336,0.499999999999999);
#108=CIRCLE('',#338,7.);
#109=CIRCLE('',#339,7.);
#110=CIRCLE('',#341,0.4);
#111=CIRCLE('',#342,0.4);
#112=CIRCLE('',#344,15.);
#113=CIRCLE('',#345,15.);
#114=CIRCLE('',#347,40.);
#115=CIRCLE('',#348,40.);
#116=CIRCLE('',#350,30.);
#117=CIRCLE('',#351,30.);
#118=CIRCLE('',#353,0.4);
#119=CIRCLE('',#355,0.4);
#120=VERTEX_POINT('',#464);
#121=VERTEX_POINT('',#465);
#122=VERTEX_POINT('',#467);
#123=VERTEX_POINT('',#469);
#124=VERTEX_POINT('',#473);
#125=VERTEX_POINT('',#474);
#126=VERTEX_POINT('',#476);
#127=VERTEX_POINT('',#478);
#128=VERTEX_POINT('',#482);
#129=VERTEX_POINT('',#483);
#130=VERTEX_POINT('',#485);
#131=VERTEX_POINT('',#487);
#132=VERTEX_POINT('',#491);
#133=VERTEX_POINT('',#493);
#134=VERTEX_POINT('',#500);
#135=VERTEX_POINT('',#502);
#136=VERTEX_POINT('',#506);
#137=VERTEX_POINT('',#508);
#138=VERTEX_POINT('',#512);
#139=VERTEX_POINT('',#514);
#140=VERTEX_POINT('',#521);
#141=VERTEX_POINT('',#523);
#142=VERTEX_POINT('',#527);
#143=VERTEX_POINT('',#529);
#144=VERTEX_POINT('',#533);
#145=VERTEX_POINT('',#535);
#146=VERTEX_POINT('',#539);
#147=VERTEX_POINT('',#541);
#148=VERTEX_POINT('',#545);
#149=VERTEX_POINT('',#547);
#150=EDGE_CURVE('',#120,#121,#96,.T.);
#151=EDGE_CURVE('',#120,#122,#54,.T.);
#152=EDGE_CURVE('',#122,#123,#97,.T.);
#153=EDGE_CURVE('',#121,#123,#55,.T.);
#154=EDGE_CURVE('',#124,#125,#98,.T.);
#155=EDGE_CURVE('',#124,#126,#56,.T.);
#156=EDGE_CURVE('',#126,#127,#99,.T.);
#157=EDGE_CURVE('',#125,#127,#57,.T.);
#158=EDGE_CURVE('',#128,#129,#100,.T.);
#159=EDGE_CURVE('',#130,#129,#58,.T.);
#160=EDGE_CURVE('',#131,#130,#101,.T.);
#161=EDGE_CURVE('',#131,#128,#59,.T.);
#162=EDGE_CURVE('',#129,#132,#102,.T.);
#163=EDGE_CURVE('',#133,#132,#60,.T.);
#164=EDGE_CURVE('',#130,#133,#103,.T.);
#165=EDGE_CURVE('',#133,#124,#104,.T.);
#166=EDGE_CURVE('',#132,#126,#105,.T.);
#167=EDGE_CURVE('',#127,#134,#61,.T.);
#168=EDGE_CURVE('',#135,#134,#62,.T.);
#169=EDGE_CURVE('',#125,#135,#63,.T.);
#170=EDGE_CURVE('',#134,#136,#64,.T.);
#171=EDGE_CURVE('',#137,#136,#65,.T.);
#172=EDGE_CURVE('',#135,#137,#66,.T.);
#173=EDGE_CURVE('',#136,#138,#67,.T.);
#174=EDGE_CURVE('',#139,#138,#68,.T.);
#175=EDGE_CURVE('',#137,#139,#69,.T.);
#176=EDGE_CURVE('',#139,#120,#106,.T.);
#177=EDGE_CURVE('',#138,#122,#107,.T.);
#178=EDGE_CURVE('',#123,#140,#108,.T.);
#179=EDGE_CURVE('',#141,#140,#70,.T.);
#180=EDGE_CURVE('',#121,#141,#109,.T.);
#181=EDGE_CURVE('',#140,#142,#110,.T.);
#182=EDGE_CURVE('',#143,#142,#71,.T.);
#183=EDGE_CURVE('',#141,#143,#111,.T.);
#184=EDGE_CURVE('',#142,#144,#112,.T.);
#185=EDGE_CURVE('',#145,#144,#72,.T.);
#186=EDGE_CURVE('',#143,#145,#113,.T.);
#187=EDGE_CURVE('',#144,#146,#114,.T.);
#188=EDGE_CURVE('',#147,#146,#73,.T.);
#189=EDGE_CURVE('',#145,#147,#115,.T.);
#190=EDGE_CURVE('',#146,#148,#116,.T.);
#191=EDGE_CURVE('',#148,#149,#74,.T.);
#192=EDGE_CURVE('',#147,#149,#117,.T.);
#193=EDGE_CURVE('',#149,#131,#118,.T.);
#194=EDGE_CURVE('',#128,#148,#119,.T.);
#195=ORIENTED_EDGE('',*,*,#150,.F.);
#196=ORIENTED_EDGE('',*,*,#151,.T.);
#197=ORIENTED_EDGE('',*,*,#152,.T.);
#198=ORIENTED_EDGE('',*,*,#153,.F.);
#199=ORIENTED_EDGE('',*,*,#154,.F.);
#200=ORIENTED_EDGE('',*,*,#155,.T.);
#201=ORIENTED_EDGE('',*,*,#156,.T.);
#202=ORIENTED_EDGE('',*,*,#157,.F.);
#203=ORIENTED_EDGE('',*,*,#158,.T.);
#204=ORIENTED_EDGE('',*,*,#159,.F.);
#205=ORIENTED_EDGE('',*,*,#160,.F.);
#206=ORIENTED_EDGE('',*,*,#161,.T.);
#207=ORIENTED_EDGE('',*,*,#162,.T.);
#208=ORIENTED_EDGE('',*,*,#163,.F.);
#209=ORIENTED_EDGE('',*,*,#164,.F.);
#210=ORIENTED_EDGE('',*,*,#159,.T.);
#211=ORIENTED_EDGE('',*,*,#155,.F.);
#212=ORIENTED_EDGE('',*,*,#165,.F.);
#213=ORIENTED_EDGE('',*,*,#163,.T.);
#214=ORIENTED_EDGE('',*,*,#166,.T.);
#215=ORIENTED_EDGE('',*,*,#167,.T.);
#216=ORIENTED_EDGE('',*,*,#168,.F.);
#217=ORIENTED_EDGE('',*,*,#169,.F.);
#218=ORIENTED_EDGE('',*,*,#157,.T.);
#219=ORIENTED_EDGE('',*,*,#170,.T.);
#220=ORIENTED_EDGE('',*,*,#171,.F.);
#221=ORIENTED_EDGE('',*,*,#172,.F.);
#222=ORIENTED_EDGE('',*,*,#168,.T.);
#223=ORIENTED_EDGE('',*,*,#173,.T.);
#224=ORIENTED_EDGE('',*,*,#174,.F.);
#225=ORIENTED_EDGE('',*,*,#175,.F.);
#226=ORIENTED_EDGE('',*,*,#171,.T.);
#227=ORIENTED_EDGE('',*,*,#151,.F.);
#228=ORIENTED_EDGE('',*,*,#176,.F.);
#229=ORIENTED_EDGE('',*,*,#174,.T.);
#230=ORIENTED_EDGE('',*,*,#177,.T.);
#231=ORIENTED_EDGE('',*,*,#178,.T.);
#232=ORIENTED_EDGE('',*,*,#179,.F.);
#233=ORIENTED_EDGE('',*,*,#180,.F.);
#234=ORIENTED_EDGE('',*,*,#153,.T.);
#235=ORIENTED_EDGE('',*,*,#181,.T.);
#236=ORIENTED_EDGE('',*,*,#182,.F.);
#237=ORIENTED_EDGE('',*,*,#183,.F.);
#238=ORIENTED_EDGE('',*,*,#179,.T.);
#239=ORIENTED_EDGE('',*,*,#184,.T.);
#240=ORIENTED_EDGE('',*,*,#185,.F.);
#241=ORIENTED_EDGE('',*,*,#186,.F.);
#242=ORIENTED_EDGE('',*,*,#182,.T.);
#243=ORIENTED_EDGE('',*,*,#187,.T.);
#244=ORIENTED_EDGE('',*,*,#188,.F.);
#245=ORIENTED_EDGE('',*,*,#189,.F.);
#246=ORIENTED_EDGE('',*,*,#185,.T.);
#247=ORIENTED_EDGE('',*,*,#190,.T.);
#248=ORIENTED_EDGE('',*,*,#191,.T.);
#249=ORIENTED_EDGE('',*,*,#192,.F.);
#250=ORIENTED_EDGE('',*,*,#188,.T.);
#251=ORIENTED_EDGE('',*,*,#192,.T.);
#252=ORIENTED_EDGE('',*,*,#193,.T.);
#253=ORIENTED_EDGE('',*,*,#160,.T.);
#254=ORIENTED_EDGE('',*,*,#164,.T.);
#255=ORIENTED_EDGE('',*,*,#165,.T.);
#256=ORIENTED_EDGE('',*,*,#154,.T.);
#257=ORIENTED_EDGE('',*,*,#169,.T.);
#258=ORIENTED_EDGE('',*,*,#172,.T.);
#259=ORIENTED_EDGE('',*,*,#175,.T.);
#260=ORIENTED_EDGE('',*,*,#176,.T.);
#261=ORIENTED_EDGE('',*,*,#150,.T.);
#262=ORIENTED_EDGE('',*,*,#180,.T.);
#263=ORIENTED_EDGE('',*,*,#183,.T.);
#264=ORIENTED_EDGE('',*,*,#186,.T.);
#265=ORIENTED_EDGE('',*,*,#189,.T.);
#266=ORIENTED_EDGE('',*,*,#158,.F.);
#267=ORIENTED_EDGE('',*,*,#194,.T.);
#268=ORIENTED_EDGE('',*,*,#190,.F.);
#269=ORIENTED_EDGE('',*,*,#187,.F.);
#270=ORIENTED_EDGE('',*,*,#184,.F.);
#271=ORIENTED_EDGE('',*,*,#181,.F.);
#272=ORIENTED_EDGE('',*,*,#178,.F.);
#273=ORIENTED_EDGE('',*,*,#152,.F.);
#274=ORIENTED_EDGE('',*,*,#177,.F.);
#275=ORIENTED_EDGE('',*,*,#173,.F.);
#276=ORIENTED_EDGE('',*,*,#170,.F.);
#277=ORIENTED_EDGE('',*,*,#167,.F.);
#278=ORIENTED_EDGE('',*,*,#156,.F.);
#279=ORIENTED_EDGE('',*,*,#166,.F.);
#280=ORIENTED_EDGE('',*,*,#162,.F.);
#281=ORIENTED_EDGE('',*,*,#193,.F.);
#282=ORIENTED_EDGE('',*,*,#191,.F.);
#283=ORIENTED_EDGE('',*,*,#194,.F.);
#284=ORIENTED_EDGE('',*,*,#161,.F.);
#285=CYLINDRICAL_SURFACE('',#316,0.499999999999999);
#286=CYLINDRICAL_SURFACE('',#319,0.4);
#287=CYLINDRICAL_SURFACE('',#322,0.4);
#288=CYLINDRICAL_SURFACE('',#325,60.);
#289=CYLINDRICAL_SURFACE('',#328,0.4);
#290=CYLINDRICAL_SURFACE('',#334,0.499999999999999);
#291=CYLINDRICAL_SURFACE('',#337,7.);
#292=CYLINDRICAL_SURFACE('',#340,0.400000000000001);
#293=CYLINDRICAL_SURFACE('',#343,15.);
#294=CYLINDRICAL_SURFACE('',#346,40.);
#295=CYLINDRICAL_SURFACE('',#349,30.);
#296=CYLINDRICAL_SURFACE('',#356,0.4);
#297=ADVANCED_FACE('',(#20),#285,.T.);
#298=ADVANCED_FACE('',(#21),#286,.T.);
#299=ADVANCED_FACE('',(#22),#287,.T.);
#300=ADVANCED_FACE('',(#23),#288,.T.);
#301=ADVANCED_FACE('',(#24),#289,.T.);
#302=ADVANCED_FACE('',(#25),#15,.F.);
#303=ADVANCED_FACE('',(#26),#16,.F.);
#304=ADVANCED_FACE('',(#27),#17,.F.);
#305=ADVANCED_FACE('',(#28),#290,.T.);
#306=ADVANCED_FACE('',(#29),#291,.F.);
#307=ADVANCED_FACE('',(#30),#292,.T.);
#308=ADVANCED_FACE('',(#31),#293,.T.);
#309=ADVANCED_FACE('',(#32),#294,.T.);
#310=ADVANCED_FACE('',(#33),#295,.F.);
#311=ADVANCED_FACE('',(#34),#18,.F.);
#312=ADVANCED_FACE('',(#35),#19,.T.);
#313=ADVANCED_FACE('',(#36),#296,.T.);
#314=CLOSED_SHELL('',(#297,#298,#299,#300,#301,#302,#303,#304,#305,#306,
#307,#308,#309,#310,#311,#312,#313));
#315=AXIS2_PLACEMENT_3D('placement',#462,#357,#358);
#316=AXIS2_PLACEMENT_3D('',#463,#359,#360);
#317=AXIS2_PLACEMENT_3D('',#466,#361,#362);
#318=AXIS2_PLACEMENT_3D('',#470,#364,#365);
#319=AXIS2_PLACEMENT_3D('',#472,#367,#368);
#320=AXIS2_PLACEMENT_3D('',#475,#369,#370);
#321=AXIS2_PLACEMENT_3D('',#479,#372,#373);
#322=AXIS2_PLACEMENT_3D('',#481,#375,#376);
#323=AXIS2_PLACEMENT_3D('',#484,#377,#378);
#324=AXIS2_PLACEMENT_3D('',#488,#380,#381);
#325=AXIS2_PLACEMENT_3D('',#490,#383,#384);
#326=AXIS2_PLACEMENT_3D('',#492,#385,#386);
#327=AXIS2_PLACEMENT_3D('',#495,#388,#389);
#328=AXIS2_PLACEMENT_3D('',#496,#390,#391);
#329=AXIS2_PLACEMENT_3D('',#497,#392,#393);
#330=AXIS2_PLACEMENT_3D('',#498,#394,#395);
#331=AXIS2_PLACEMENT_3D('',#499,#396,#397);
#332=AXIS2_PLACEMENT_3D('',#505,#401,#402);
#333=AXIS2_PLACEMENT_3D('',#511,#406,#407);
#334=AXIS2_PLACEMENT_3D('',#517,#411,#412);
#335=AXIS2_PLACEMENT_3D('',#518,#413,#414);
#336=AXIS2_PLACEMENT_3D('',#519,#415,#416);
#337=AXIS2_PLACEMENT_3D('',#520,#417,#418);
#338=AXIS2_PLACEMENT_3D('',#522,#419,#420);
#339=AXIS2_PLACEMENT_3D('',#525,#422,#423);
#340=AXIS2_PLACEMENT_3D('',#526,#424,#425);
#341=AXIS2_PLACEMENT_3D('',#528,#426,#427);
#342=AXIS2_PLACEMENT_3D('',#531,#429,#430);
#343=AXIS2_PLACEMENT_3D('',#532,#431,#432);
#344=AXIS2_PLACEMENT_3D('',#534,#433,#434);
#345=AXIS2_PLACEMENT_3D('',#537,#436,#437);
#346=AXIS2_PLACEMENT_3D('',#538,#438,#439);
#347=AXIS2_PLACEMENT_3D('',#540,#440,#441);
#348=AXIS2_PLACEMENT_3D('',#543,#443,#444);
#349=AXIS2_PLACEMENT_3D('',#544,#445,#446);
#350=AXIS2_PLACEMENT_3D('',#546,#447,#448);
#351=AXIS2_PLACEMENT_3D('',#549,#450,#451);
#352=AXIS2_PLACEMENT_3D('',#550,#452,#453);
#353=AXIS2_PLACEMENT_3D('',#551,#454,#455);
#354=AXIS2_PLACEMENT_3D('',#552,#456,#457);
#355=AXIS2_PLACEMENT_3D('',#553,#458,#459);
#356=AXIS2_PLACEMENT_3D('',#554,#460,#461);
#357=DIRECTION('axis',(0.,0.,1.));
#358=DIRECTION('refdir',(1.,0.,0.));
#359=DIRECTION('center_axis',(0.,0.,1.));
#360=DIRECTION('ref_axis',(-1.,0.,0.));
#361=DIRECTION('center_axis',(0.,0.,1.));
#362=DIRECTION('ref_axis',(1.,0.,0.));
#363=DIRECTION('',(0.,0.,-1.));
#364=DIRECTION('center_axis',(0.,0.,1.));
#365=DIRECTION('ref_axis',(1.,0.,0.));
#366=DIRECTION('',(0.,0.,-1.));
#367=DIRECTION('center_axis',(0.,0.,1.));
#368=DIRECTION('ref_axis',(-1.,0.,0.));
#369=DIRECTION('center_axis',(0.,0.,1.));
#370=DIRECTION('ref_axis',(1.,0.,0.));
#371=DIRECTION('',(0.,0.,-1.));
#372=DIRECTION('center_axis',(0.,0.,1.));
#373=DIRECTION('ref_axis',(1.,0.,0.));
#374=DIRECTION('',(0.,0.,-1.));
#375=DIRECTION('center_axis',(0.,0.,1.));
#376=DIRECTION('ref_axis',(-1.,0.,0.));
#377=DIRECTION('center_axis',(0.,0.,1.));
#378=DIRECTION('ref_axis',(-1.,0.,0.));
#379=DIRECTION('',(0.,0.,-1.));
#380=DIRECTION('center_axis',(0.,0.,1.));
#381=DIRECTION('ref_axis',(-1.,0.,0.));
#382=DIRECTION('',(0.,0.,-1.));
#383=DIRECTION('center_axis',(0.,0.,1.));
#384=DIRECTION('ref_axis',(-1.,0.,0.));
#385=DIRECTION('center_axis',(0.,0.,1.));
#386=DIRECTION('ref_axis',(1.,0.,0.));
#387=DIRECTION('',(0.,0.,-1.));
#388=DIRECTION('center_axis',(0.,0.,1.));
#389=DIRECTION('ref_axis',(1.,0.,0.));
#390=DIRECTION('center_axis',(0.,0.,1.));
#391=DIRECTION('ref_axis',(-1.,0.,0.));
#392=DIRECTION('center_axis',(0.,0.,1.));
#393=DIRECTION('ref_axis',(1.,0.,0.));
#394=DIRECTION('center_axis',(0.,0.,1.));
#395=DIRECTION('ref_axis',(1.,0.,0.));
#396=DIRECTION('center_axis',(-0.104528463267647,0.994521895368274,0.));
#397=DIRECTION('ref_axis',(0.,0.,1.));
#398=DIRECTION('',(0.994521895368274,0.104528463267647,0.));
#399=DIRECTION('',(0.,0.,-1.));
#400=DIRECTION('',(0.994521895368274,0.104528463267647,0.));
#401=DIRECTION('center_axis',(1.,1.83649404852124E-48,1.49966072182214E-32));
#402=DIRECTION('ref_axis',(0.,1.,0.));
#403=DIRECTION('',(1.22460635382238E-16,-1.,0.));
#404=DIRECTION('',(0.,0.,-1.));
#405=DIRECTION('',(1.22460635382238E-16,-1.,0.));
#406=DIRECTION('center_axis',(4.33680868994202E-15,-1.,0.));
#407=DIRECTION('ref_axis',(0.,0.,-1.));
#408=DIRECTION('',(-1.,-4.33680868994202E-15,0.));
#409=DIRECTION('',(0.,0.,-1.));
#410=DIRECTION('',(-1.,-4.33680868994202E-15,0.));
#411=DIRECTION('center_axis',(0.,0.,1.));
#412=DIRECTION('ref_axis',(-1.,0.,0.));
#413=DIRECTION('center_axis',(0.,0.,1.));
#414=DIRECTION('ref_axis',(1.,0.,0.));
#415=DIRECTION('center_axis',(0.,0.,1.));
#416=DIRECTION('ref_axis',(1.,0.,0.));
#417=DIRECTION('center_axis',(0.,0.,1.));
#418=DIRECTION('ref_axis',(-1.,0.,0.));
#419=DIRECTION('center_axis',(0.,0.,-1.));
#420=DIRECTION('ref_axis',(-1.,0.,0.));
#421=DIRECTION('',(0.,0.,-1.));
#422=DIRECTION('center_axis',(0.,0.,-1.));
#423=DIRECTION('ref_axis',(-1.,0.,0.));
#424=DIRECTION('center_axis',(0.,0.,1.));
#425=DIRECTION('ref_axis',(-1.,0.,0.));
#426=DIRECTION('center_axis',(0.,0.,1.));
#427=DIRECTION('ref_axis',(1.,0.,0.));
#428=DIRECTION('',(0.,0.,-1.));
#429=DIRECTION('center_axis',(0.,0.,1.));
#430=DIRECTION('ref_axis',(1.,0.,0.));
#431=DIRECTION('center_axis',(0.,0.,1.));
#432=DIRECTION('ref_axis',(-1.,0.,0.));
#433=DIRECTION('center_axis',(0.,0.,1.));
#434=DIRECTION('ref_axis',(1.,0.,0.));
#435=DIRECTION('',(0.,0.,-1.));
#436=DIRECTION('center_axis',(0.,0.,1.));
#437=DIRECTION('ref_axis',(1.,0.,0.));
#438=DIRECTION('center_axis',(0.,0.,1.));
#439=DIRECTION('ref_axis',(-1.,0.,0.));
#440=DIRECTION('center_axis',(0.,0.,1.));
#441=DIRECTION('ref_axis',(-1.,0.,0.));
#442=DIRECTION('',(0.,0.,-1.));
#443=DIRECTION('center_axis',(0.,0.,1.));
#444=DIRECTION('ref_axis',(-1.,0.,0.));
#445=DIRECTION('center_axis',(0.,0.,1.));
#446=DIRECTION('ref_axis',(-1.,0.,0.));
#447=DIRECTION('center_axis',(0.,0.,-1.));
#448=DIRECTION('ref_axis',(-1.,0.,0.));
#449=DIRECTION('',(0.,0.,1.));
#450=DIRECTION('center_axis',(0.,0.,-1.));
#451=DIRECTION('ref_axis',(-1.,0.,0.));
#452=DIRECTION('center_axis',(0.,0.,-1.));
#453=DIRECTION('ref_axis',(0.,-1.,0.));
#454=DIRECTION('center_axis',(0.,0.,1.));
#455=DIRECTION('ref_axis',(-1.,-8.13151629364128E-16,0.));
#456=DIRECTION('center_axis',(0.,0.,-1.));
#457=DIRECTION('ref_axis',(0.,-1.,0.));
#458=DIRECTION('center_axis',(0.,0.,-1.));
#459=DIRECTION('ref_axis',(-1.,0.,0.));
#460=DIRECTION('center_axis',(0.,0.,1.));
#461=DIRECTION('ref_axis',(-1.,0.,0.));
#462=CARTESIAN_POINT('',(0.,0.,0.));
#463=CARTESIAN_POINT('Origin',(-0.0999999999999997,-2.5239217704934,1000.));
#464=CARTESIAN_POINT('',(-0.599999999999999,-2.5239217704934,100.));
#465=CARTESIAN_POINT('',(-0.282053879599532,-2.98960018412534,100.));
#466=CARTESIAN_POINT('Origin',(-0.0999999999999997,-2.5239217704934,100.));
#467=CARTESIAN_POINT('',(-0.599999999999999,-2.5239217704934,0.));
#468=CARTESIAN_POINT('',(-0.599999999999999,-2.5239217704934,1000.));
#469=CARTESIAN_POINT('',(-0.282053879599532,-2.98960018412534,0.));
#470=CARTESIAN_POINT('Origin',(-0.0999999999999997,-2.5239217704934,0.));
#471=CARTESIAN_POINT('',(-0.282053879599532,-2.98960018412534,1000.));
#472=CARTESIAN_POINT('Origin',(-1.2,0.276078229506603,1000.));
#473=CARTESIAN_POINT('',(-1.6,0.276078229506603,100.));
#474=CARTESIAN_POINT('',(-1.15818861469294,-0.121730528640707,100.));
#475=CARTESIAN_POINT('Origin',(-1.2,0.276078229506603,100.));
#476=CARTESIAN_POINT('',(-1.6,0.276078229506603,0.));
#477=CARTESIAN_POINT('',(-1.6,0.276078229506603,1000.));
#478=CARTESIAN_POINT('',(-1.15818861469294,-0.121730528640707,0.));
#479=CARTESIAN_POINT('Origin',(-1.2,0.276078229506603,0.));
#480=CARTESIAN_POINT('',(-1.15818861469294,-0.121730528640707,1000.));
#481=CARTESIAN_POINT('Origin',(4.2,0.576078229506603,1000.));
#482=CARTESIAN_POINT('',(4.6,0.576078229506603,0.));
#483=CARTESIAN_POINT('',(4.19595564747558,0.976057782999848,0.));
#484=CARTESIAN_POINT('Origin',(4.2,0.576078229506603,0.));
#485=CARTESIAN_POINT('',(4.19595564747558,0.976057782999848,100.));
#486=CARTESIAN_POINT('',(4.19595564747558,0.976057782999848,1000.));
#487=CARTESIAN_POINT('',(4.6,0.576078229506603,100.));
#488=CARTESIAN_POINT('Origin',(4.2,0.576078229506603,100.));
#489=CARTESIAN_POINT('',(4.6,0.576078229506603,1000.));
#490=CARTESIAN_POINT('Origin',(4.80260852613856,-59.0208752409874,1000.));
#491=CARTESIAN_POINT('',(-1.24028596326267,0.674044360181057,0.));
#492=CARTESIAN_POINT('Origin',(4.80260852613856,-59.0208752409874,0.));
#493=CARTESIAN_POINT('',(-1.24028596326267,0.674044360181057,100.));
#494=CARTESIAN_POINT('',(-1.24028596326267,0.674044360181057,1000.));
#495=CARTESIAN_POINT('Origin',(4.80260852613856,-59.0208752409874,100.));
#496=CARTESIAN_POINT('Origin',(-1.2,0.276078229506603,1000.));
#497=CARTESIAN_POINT('Origin',(-1.2,0.276078229506603,100.));
#498=CARTESIAN_POINT('Origin',(-1.2,0.276078229506603,0.));
#499=CARTESIAN_POINT('Origin',(0.,0.,1000.));
#500=CARTESIAN_POINT('',(1.64212849039524E-29,1.7259465919096E-30,0.));
#501=CARTESIAN_POINT('',(0.,0.,0.));
#502=CARTESIAN_POINT('',(0.,0.,100.));
#503=CARTESIAN_POINT('',(0.,0.,1095.));
#504=CARTESIAN_POINT('',(0.,0.,100.));
#505=CARTESIAN_POINT('Origin',(0.,0.,1095.));
#506=CARTESIAN_POINT('',(2.47850745978565E-16,-2.0239217704934,0.));
#507=CARTESIAN_POINT('',(0.,0.,0.));
#508=CARTESIAN_POINT('',(2.47850745978565E-16,-2.0239217704934,100.));
#509=CARTESIAN_POINT('',(2.47850745978565E-16,-2.0239217704934,1095.));
#510=CARTESIAN_POINT('',(0.,0.,100.));
#511=CARTESIAN_POINT('Origin',(2.47850745978565E-16,-2.0239217704934,1000.));
#512=CARTESIAN_POINT('',(-0.0999999999999997,-2.0239217704934,0.));
#513=CARTESIAN_POINT('',(2.47850745978565E-16,-2.0239217704934,0.));
#514=CARTESIAN_POINT('',(-0.0999999999999997,-2.0239217704934,100.));
#515=CARTESIAN_POINT('',(-0.0999999999999997,-2.0239217704934,1000.));
#516=CARTESIAN_POINT('',(2.47850745978565E-16,-2.0239217704934,100.));
#517=CARTESIAN_POINT('Origin',(-0.0999999999999997,-2.5239217704934,1000.));
#518=CARTESIAN_POINT('Origin',(-0.0999999999999997,-2.5239217704934,100.));
#519=CARTESIAN_POINT('Origin',(-0.0999999999999997,-2.5239217704934,0.));
#520=CARTESIAN_POINT('Origin',(-2.83080819399298,-9.50909797497248,1000.));
#521=CARTESIAN_POINT('',(3.44157793545984,-6.4014988626274,0.));
#522=CARTESIAN_POINT('Origin',(-2.83080819399298,-9.50909797497248,0.));
#523=CARTESIAN_POINT('',(3.44157793545984,-6.4014988626274,100.));
#524=CARTESIAN_POINT('',(3.44157793545984,-6.4014988626274,1000.));
#525=CARTESIAN_POINT('Origin',(-2.83080819399298,-9.50909797497248,100.));
#526=CARTESIAN_POINT('Origin',(3.8,-6.2239217704934,1000.));
#527=CARTESIAN_POINT('',(4.16643645435743,-6.06353372568345,0.));
#528=CARTESIAN_POINT('Origin',(3.8,-6.2239217704934,0.));
#529=CARTESIAN_POINT('',(4.16643645435743,-6.06353372568345,100.));
#530=CARTESIAN_POINT('',(4.16643645435743,-6.06353372568345,1000.));
#531=CARTESIAN_POINT('Origin',(3.8,-6.2239217704934,100.));
#532=CARTESIAN_POINT('Origin',(-9.57493058404613,-12.0780854060563,1000.));
#533=CARTESIAN_POINT('',(1.8,-2.3,0.));
#534=CARTESIAN_POINT('Origin',(-9.57493058404613,-12.0780854060563,0.));
#535=CARTESIAN_POINT('',(1.8,-2.3,100.));
#536=CARTESIAN_POINT('',(1.8,-2.3,1000.));
#537=CARTESIAN_POINT('Origin',(-9.57493058404613,-12.0780854060563,100.));
#538=CARTESIAN_POINT('Origin',(-38.1804639792987,-1.05,1000.));
#539=CARTESIAN_POINT('',(1.8,0.199999999999999,0.));
#540=CARTESIAN_POINT('Origin',(-38.1804639792987,-1.05,0.));
#541=CARTESIAN_POINT('',(1.8,0.199999999999999,100.));
#542=CARTESIAN_POINT('',(1.8,0.199999999999999,1000.));
#543=CARTESIAN_POINT('Origin',(-38.1804639792987,-1.05,100.));
#544=CARTESIAN_POINT('Origin',(4.01393477936201,-29.7181966835024,1000.));
#545=CARTESIAN_POINT('',(4.21141225535933,0.281153353564677,0.));
#546=CARTESIAN_POINT('Origin',(4.01393477936201,-29.7181966835024,0.));
#547=CARTESIAN_POINT('',(4.21141225535933,0.281153353564677,100.));
#548=CARTESIAN_POINT('',(4.21141225535933,0.281153353564677,1000.));
#549=CARTESIAN_POINT('Origin',(4.01393477936201,-29.7181966835024,100.));
#550=CARTESIAN_POINT('Origin',(4.2,0.576078229506603,100.));
#551=CARTESIAN_POINT('Origin',(4.21404528837263,0.681144687392242,100.));
#552=CARTESIAN_POINT('Origin',(4.2,0.576078229506603,0.));
#553=CARTESIAN_POINT('Origin',(4.21404528837263,0.681144687392242,0.));
#554=CARTESIAN_POINT('Origin',(4.21404528837263,0.681144687392242,1000.));
#555=UNCERTAINTY_MEASURE_WITH_UNIT(LENGTH_MEASURE(0.01),#559,
'DISTANCE_ACCURACY_VALUE',
'Maximum model space distance between geometric entities at asserted c
onnectivities');
#556=UNCERTAINTY_MEASURE_WITH_UNIT(LENGTH_MEASURE(1.E-6),#559,
'DISTANCE_ACCURACY_VALUE',
'Maximum model space distance between geometric entities at asserted c
onnectivities');
#557=(
GEOMETRIC_REPRESENTATION_CONTEXT(3)
GLOBAL_UNCERTAINTY_ASSIGNED_CONTEXT((#555))
GLOBAL_UNIT_ASSIGNED_CONTEXT((#559,#562,#560))
REPRESENTATION_CONTEXT('','3D')
);
#558=(
GEOMETRIC_REPRESENTATION_CONTEXT(3)
GLOBAL_UNCERTAINTY_ASSIGNED_CONTEXT((#556))
GLOBAL_UNIT_ASSIGNED_CONTEXT((#559,#562,#560))
REPRESENTATION_CONTEXT('','3D')
);
#559=(
LENGTH_UNIT()
NAMED_UNIT(*)
SI_UNIT(.MILLI.,.METRE.)
);
#560=(
NAMED_UNIT(*)
SI_UNIT($,.STERADIAN.)
SOLID_ANGLE_UNIT()
);
#561=DIMENSIONAL_EXPONENTS(0.,0.,0.,0.,0.,0.,0.);
#562=(
CONVERSION_BASED_UNIT('degree',#564)
NAMED_UNIT(#561)
PLANE_ANGLE_UNIT()
);
#563=(
NAMED_UNIT(*)
PLANE_ANGLE_UNIT()
SI_UNIT($,.RADIAN.)
);
#564=PLANE_ANGLE_MEASURE_WITH_UNIT(PLANE_ANGLE_MEASURE(0.01745329252),#563);
#565=SHAPE_DEFINITION_REPRESENTATION(#566,#567);
#566=PRODUCT_DEFINITION_SHAPE('',$,#569);
#567=SHAPE_REPRESENTATION('',(#315),#557);
#568=PRODUCT_DEFINITION_CONTEXT('part definition',#573,'design');
#569=PRODUCT_DEFINITION('699996','699996',#570,#568);
#570=PRODUCT_DEFINITION_FORMATION('',$,#575);
#571=PRODUCT_RELATED_PRODUCT_CATEGORY('699996','699996',(#575));
#572=APPLICATION_PROTOCOL_DEFINITION('international standard',
'automotive_design',2009,#573);
#573=APPLICATION_CONTEXT(
'Core Data for Automotive Mechanical Design Process');
#574=PRODUCT_CONTEXT('part definition',#573,'mechanical');
#575=PRODUCT('699996','699996',$,(#574));
#576=PRESENTATION_STYLE_ASSIGNMENT((#577));
#577=SURFACE_STYLE_USAGE(.BOTH.,#578);
#578=SURFACE_SIDE_STYLE('',(#579));
#579=SURFACE_STYLE_FILL_AREA(#580);
#580=FILL_AREA_STYLE('',(#581));
#581=FILL_AREA_STYLE_COLOUR('',#582);
#582=COLOUR_RGB('',0.894117647058824,0.913725490196078,0.929411764705882);
ENDSEC;
END-ISO-10303-21;
