ISO-10303-21;
HEADER;
/****************************************************************
 * Generated by software with PDE/Lib inside                    *
 * PDElib Version v51a, created Mon 03/22/2010                  *
 * International Technegroup Inc. (www.iti-oh.com)              *
 ****************************************************************/
FILE_DESCRIPTION((''),'2;1');
FILE_NAME('D:\\P\X2\0159\X0\evod katalogu\\P\X2\0159\X0\evod do STEP\\Modul 45\\Kompleta\X2\010D\X0\n\S\m dopl\X2\0148\X0\ky\\620012\\620012.ipt.stp','2010-09-05T12:22:52',(''),(''),'Autodesk Inventor 2010','Autodesk Inventor 2010','');
FILE_SCHEMA(('AUTOMOTIVE_DESIGN { 1 0 10303 214 1 1 1 1 }'));
ENDSEC;
DATA;
#5=APPLICATION_CONTEXT('automotive design');
#6=APPLICATION_PROTOCOL_DEFINITION('International Standard','automotive_design',2001,#5);
#7=PRODUCT_CONTEXT('',#5,'mechanical');
#8=PRODUCT('620012','620012',$,(#7));
#9=PRODUCT_RELATED_PRODUCT_CATEGORY('part',$,(#8));
#10=PRODUCT_DEFINITION_FORMATION('',$,#8);
#11=PRODUCT_DEFINITION_CONTEXT('part definition',#5,'design');
#12=PRODUCT_DEFINITION('',$,#10,#11);
#18=(NAMED_UNIT(*)PLANE_ANGLE_UNIT()SI_UNIT($,.RADIAN.));
#19=DIMENSIONAL_EXPONENTS(0.0,0.0,0.0,0.0,0.0,0.0,0.0);
#20=PLANE_ANGLE_MEASURE_WITH_UNIT(PLANE_ANGLE_MEASURE(0.017453292500000),#18);
#24=(CONVERSION_BASED_UNIT('DEGREE',#20)NAMED_UNIT(#19)PLANE_ANGLE_UNIT());
#28=(NAMED_UNIT(*)SI_UNIT($,.STERADIAN.)SOLID_ANGLE_UNIT());
#32=(LENGTH_UNIT()NAMED_UNIT(*)SI_UNIT(.MILLI.,.METRE.));
#34=UNCERTAINTY_MEASURE_WITH_UNIT(LENGTH_MEASURE(0.010000000000000),#32,'DISTANCE_ACCURACY_VALUE','');
#36=(GEOMETRIC_REPRESENTATION_CONTEXT(3)GLOBAL_UNCERTAINTY_ASSIGNED_CONTEXT((#34))GLOBAL_UNIT_ASSIGNED_CONTEXT((#24,#28,#32))REPRESENTATION_CONTEXT('None','None'));
#37=AXIS2_PLACEMENT_3D('',#38,#39,#40);
#38=CARTESIAN_POINT('',(0.0,0.0,0.0));
#39=DIRECTION('',(0.0,0.0,1.0));
#40=DIRECTION('',(1.0,0.0,0.0));
#41=SHAPE_REPRESENTATION('',(#37),#36);
#42=PRODUCT_DEFINITION_SHAPE('','',#12);
#43=SHAPE_DEFINITION_REPRESENTATION(#42,#41);
#49=(NAMED_UNIT(*)PLANE_ANGLE_UNIT()SI_UNIT($,.RADIAN.));
#50=DIMENSIONAL_EXPONENTS(0.0,0.0,0.0,0.0,0.0,0.0,0.0);
#51=PLANE_ANGLE_MEASURE_WITH_UNIT(PLANE_ANGLE_MEASURE(0.017453292500000),#49);
#55=(CONVERSION_BASED_UNIT('DEGREE',#51)NAMED_UNIT(#50)PLANE_ANGLE_UNIT());
#59=(NAMED_UNIT(*)SI_UNIT($,.STERADIAN.)SOLID_ANGLE_UNIT());
#63=(LENGTH_UNIT()NAMED_UNIT(*)SI_UNIT(.MILLI.,.METRE.));
#65=UNCERTAINTY_MEASURE_WITH_UNIT(LENGTH_MEASURE(0.000001000000000),#63,'DISTANCE_ACCURACY_VALUE','');
#67=(GEOMETRIC_REPRESENTATION_CONTEXT(3)GLOBAL_UNCERTAINTY_ASSIGNED_CONTEXT((#65))GLOBAL_UNIT_ASSIGNED_CONTEXT((#55,#59,#63))REPRESENTATION_CONTEXT('','3D'));
#68=CARTESIAN_POINT('',(2.220446E-015,9.800353250614393,-10.750000000000002));
#69=DIRECTION('',(0.0,0.0,1.0));
#70=DIRECTION('',(1.0,0.0,0.0));
#71=AXIS2_PLACEMENT_3D('',#68,#69,#70);
#72=CONICAL_SURFACE('',#71,2.749999999999995,45.000000000000092);
#73=CARTESIAN_POINT('',(-2.499999999999992,9.800353250614393,-11.0));
#74=VERTEX_POINT('',#73);
#75=CARTESIAN_POINT('',(2.220446E-015,9.800353250614393,-11.0));
#76=DIRECTION('',(0.0,0.0,1.0));
#77=DIRECTION('',(1.0,0.0,0.0));
#78=AXIS2_PLACEMENT_3D('',#75,#76,#77);
#79=CIRCLE('',#78,2.499999999999994);
#80=EDGE_CURVE('',#74,#74,#79,.T.);
#81=ORIENTED_EDGE('',*,*,#80,.T.);
#82=EDGE_LOOP('',(#81));
#83=FACE_OUTER_BOUND('',#82,.T.);
#84=CARTESIAN_POINT('',(-2.999999999999994,9.800353250614393,-10.500000000000000));
#85=VERTEX_POINT('',#84);
#86=CARTESIAN_POINT('',(2.220446E-015,9.800353250614393,-10.500000000000000));
#87=DIRECTION('',(0.0,0.0,-1.0));
#88=DIRECTION('',(1.0,0.0,0.0));
#89=AXIS2_PLACEMENT_3D('',#86,#87,#88);
#90=CIRCLE('',#89,2.999999999999996);
#91=EDGE_CURVE('',#85,#85,#90,.T.);
#92=ORIENTED_EDGE('',*,*,#91,.T.);
#93=EDGE_LOOP('',(#92));
#94=FACE_BOUND('',#93,.T.);
#95=ADVANCED_FACE('',(#83,#94),#72,.T.);
#96=CARTESIAN_POINT('',(2.220446E-015,9.800353250614393,-5.499999999999998));
#97=DIRECTION('',(0.0,0.0,1.0));
#98=DIRECTION('',(-1.0,0.0,0.0));
#99=AXIS2_PLACEMENT_3D('',#96,#97,#98);
#100=CYLINDRICAL_SURFACE('',#99,2.999999999999996);
#101=CARTESIAN_POINT('',(-2.999999999999995,9.800353250614393,2.359224E-015));
#102=VERTEX_POINT('',#101);
#103=CARTESIAN_POINT('',(2.220446E-015,9.800353250614393,2.775558E-015));
#104=DIRECTION('',(0.0,0.0,1.0));
#105=DIRECTION('',(-1.0,0.0,0.0));
#106=AXIS2_PLACEMENT_3D('',#103,#104,#105);
#107=CIRCLE('',#106,2.999999999999997);
#108=EDGE_CURVE('',#102,#102,#107,.T.);
#109=ORIENTED_EDGE('',*,*,#108,.F.);
#110=EDGE_LOOP('',(#109));
#111=FACE_OUTER_BOUND('',#110,.T.);
#112=ORIENTED_EDGE('',*,*,#91,.F.);
#113=EDGE_LOOP('',(#112));
#114=FACE_BOUND('',#113,.T.);
#115=ADVANCED_FACE('',(#111,#114),#100,.T.);
#116=CARTESIAN_POINT('',(-1.499999999999995,9.800353250614393,-11.0));
#117=DIRECTION('',(0.0,0.0,-1.0));
#118=DIRECTION('',(0.0,1.0,0.0));
#119=AXIS2_PLACEMENT_3D('',#116,#117,#118);
#120=PLANE('',#119);
#121=ORIENTED_EDGE('',*,*,#80,.F.);
#122=EDGE_LOOP('',(#121));
#123=FACE_OUTER_BOUND('',#122,.T.);
#124=ADVANCED_FACE('',(#123),#120,.T.);
#125=CARTESIAN_POINT('',(-7.749999999999998,9.800353250614393,0.0));
#126=DIRECTION('',(0.0,0.0,-1.0));
#127=DIRECTION('',(0.0,1.0,0.0));
#128=AXIS2_PLACEMENT_3D('',#125,#126,#127);
#129=PLANE('',#128);
#130=CARTESIAN_POINT('',(-12.500000000000000,9.800353250614393,-2.359224E-015));
#131=VERTEX_POINT('',#130);
#132=CARTESIAN_POINT('',(2.220446E-015,9.800353250614393,-1.665335E-015));
#133=DIRECTION('',(0.0,0.0,1.0));
#134=DIRECTION('',(-1.0,0.0,0.0));
#135=AXIS2_PLACEMENT_3D('',#132,#133,#134);
#136=CIRCLE('',#135,12.500000000000002);
#137=EDGE_CURVE('',#131,#131,#136,.T.);
#138=ORIENTED_EDGE('',*,*,#137,.F.);
#139=EDGE_LOOP('',(#138));
#140=FACE_OUTER_BOUND('',#139,.T.);
#141=ORIENTED_EDGE('',*,*,#108,.T.);
#142=EDGE_LOOP('',(#141));
#143=FACE_BOUND('',#142,.T.);
#144=ADVANCED_FACE('',(#140,#143),#129,.T.);
#145=CARTESIAN_POINT('',(2.220446E-015,9.800353250614393,0.999999999999997));
#146=DIRECTION('',(0.0,0.0,1.0));
#147=DIRECTION('',(-1.0,0.0,0.0));
#148=AXIS2_PLACEMENT_3D('',#145,#146,#147);
#149=CYLINDRICAL_SURFACE('',#148,12.500000000000002);
#150=CARTESIAN_POINT('',(-12.500000000000000,9.800353250614393,1.999999999999998));
#151=VERTEX_POINT('',#150);
#152=CARTESIAN_POINT('',(2.220446E-015,9.800353250614393,1.999999999999998));
#153=DIRECTION('',(0.0,0.0,1.0));
#154=DIRECTION('',(-1.0,0.0,0.0));
#155=AXIS2_PLACEMENT_3D('',#152,#153,#154);
#156=CIRCLE('',#155,12.500000000000002);
#157=EDGE_CURVE('',#151,#151,#156,.T.);
#158=ORIENTED_EDGE('',*,*,#157,.F.);
#159=EDGE_LOOP('',(#158));
#160=FACE_OUTER_BOUND('',#159,.T.);
#161=ORIENTED_EDGE('',*,*,#137,.T.);
#162=EDGE_LOOP('',(#161));
#163=FACE_BOUND('',#162,.T.);
#164=ADVANCED_FACE('',(#160,#163),#149,.T.);
#165=CARTESIAN_POINT('',(-7.749999999999999,9.800353250614393,2.0));
#166=DIRECTION('',(0.0,0.0,1.0));
#167=DIRECTION('',(0.0,-1.0,0.0));
#168=AXIS2_PLACEMENT_3D('',#165,#166,#167);
#169=PLANE('',#168);
#170=ORIENTED_EDGE('',*,*,#157,.T.);
#171=EDGE_LOOP('',(#170));
#172=FACE_OUTER_BOUND('',#171,.T.);
#173=CARTESIAN_POINT('',(-2.999999999999997,9.800353250614393,2.000000000000002));
#174=VERTEX_POINT('',#173);
#175=CARTESIAN_POINT('',(2.220446E-015,9.800353250614393,2.000000000000002));
#176=DIRECTION('',(0.0,0.0,1.0));
#177=DIRECTION('',(-1.0,0.0,0.0));
#178=AXIS2_PLACEMENT_3D('',#175,#176,#177);
#179=CIRCLE('',#178,2.999999999999999);
#180=EDGE_CURVE('',#174,#174,#179,.T.);
#181=ORIENTED_EDGE('',*,*,#180,.F.);
#182=EDGE_LOOP('',(#181));
#183=FACE_BOUND('',#182,.T.);
#184=ADVANCED_FACE('',(#172,#183),#169,.T.);
#185=CARTESIAN_POINT('',(2.220446E-015,9.800353250614393,6.500000000000002));
#186=DIRECTION('',(0.0,0.0,1.0));
#187=DIRECTION('',(-1.0,0.0,0.0));
#188=AXIS2_PLACEMENT_3D('',#185,#186,#187);
#189=CYLINDRICAL_SURFACE('',#188,2.999999999999997);
#190=CARTESIAN_POINT('',(-2.999999999999992,9.800353250614393,11.0));
#191=VERTEX_POINT('',#190);
#192=CARTESIAN_POINT('',(2.220446E-015,9.800353250614393,11.0));
#193=DIRECTION('',(0.0,0.0,1.0));
#194=DIRECTION('',(-1.0,0.0,0.0));
#195=AXIS2_PLACEMENT_3D('',#192,#193,#194);
#196=CIRCLE('',#195,2.999999999999994);
#197=EDGE_CURVE('',#191,#191,#196,.T.);
#198=ORIENTED_EDGE('',*,*,#197,.F.);
#199=EDGE_LOOP('',(#198));
#200=FACE_OUTER_BOUND('',#199,.T.);
#201=ORIENTED_EDGE('',*,*,#180,.T.);
#202=EDGE_LOOP('',(#201));
#203=FACE_BOUND('',#202,.T.);
#204=ADVANCED_FACE('',(#200,#203),#189,.T.);
#205=CARTESIAN_POINT('',(-1.499999999999995,9.800353250614393,11.0));
#206=DIRECTION('',(0.0,0.0,1.0));
#207=DIRECTION('',(0.0,-1.0,0.0));
#208=AXIS2_PLACEMENT_3D('',#205,#206,#207);
#209=PLANE('',#208);
#210=ORIENTED_EDGE('',*,*,#197,.T.);
#211=EDGE_LOOP('',(#210));
#212=FACE_OUTER_BOUND('',#211,.T.);
#213=ADVANCED_FACE('',(#212),#209,.T.);
#214=CLOSED_SHELL('',(#95,#115,#124,#144,#164,#184,#204,#213));
#215=MANIFOLD_SOLID_BREP('T\X2\011B\X0\leso1',#214);
#216=COLOUR_RGB('',0.639216005802155,0.639216005802155,0.686275005340576);
#217=FILL_AREA_STYLE_COLOUR('',#216);
#218=FILL_AREA_STYLE('',(#217));
#219=SURFACE_STYLE_FILL_AREA(#218);
#220=SURFACE_SIDE_STYLE('',(#219));
#221=SURFACE_STYLE_USAGE(.BOTH.,#220);
#222=PRESENTATION_STYLE_ASSIGNMENT((#221));
#223=STYLED_ITEM('',(#222),#95);
#224=STYLED_ITEM('',(#222),#115);
#225=STYLED_ITEM('',(#222),#124);
#226=STYLED_ITEM('',(#222),#144);
#227=STYLED_ITEM('',(#222),#164);
#228=STYLED_ITEM('',(#222),#184);
#229=STYLED_ITEM('',(#222),#204);
#230=STYLED_ITEM('',(#222),#213);
#231=MECHANICAL_DESIGN_GEOMETRIC_PRESENTATION_REPRESENTATION('',(#223,#224,#225,#226,#227,#228,#229,#230,#239,#409),#67);
#232=COLOUR_RGB('V\X2\FFFD\X0\choz\X2\FFFD\X0\',0.752941012382507,0.752941012382507,0.752941012382507);
#233=FILL_AREA_STYLE_COLOUR('V\X2\FFFD\X0\choz\X2\FFFD\X0\',#232);
#234=FILL_AREA_STYLE('V\X2\FFFD\X0\choz\X2\FFFD\X0\',(#233));
#235=SURFACE_STYLE_FILL_AREA(#234);
#236=SURFACE_SIDE_STYLE('V\X2\FFFD\X0\choz\X2\FFFD\X0\',(#235));
#237=SURFACE_STYLE_USAGE(.BOTH.,#236);
#238=PRESENTATION_STYLE_ASSIGNMENT((#237));
#239=STYLED_ITEM('',(#238),#215);
#240=ADVANCED_BREP_SHAPE_REPRESENTATION('ABSR',(#215,#395),#36);
#241=SHAPE_REPRESENTATION_RELATIONSHIP('SRR','None',#240,#41);
#247=(NAMED_UNIT(*)PLANE_ANGLE_UNIT()SI_UNIT($,.RADIAN.));
#248=DIMENSIONAL_EXPONENTS(0.0,0.0,0.0,0.0,0.0,0.0,0.0);
#249=PLANE_ANGLE_MEASURE_WITH_UNIT(PLANE_ANGLE_MEASURE(0.017453292500000),#247);
#253=(CONVERSION_BASED_UNIT('DEGREE',#249)NAMED_UNIT(#248)PLANE_ANGLE_UNIT());
#257=(NAMED_UNIT(*)SI_UNIT($,.STERADIAN.)SOLID_ANGLE_UNIT());
#261=(LENGTH_UNIT()NAMED_UNIT(*)SI_UNIT(.MILLI.,.METRE.));
#263=UNCERTAINTY_MEASURE_WITH_UNIT(LENGTH_MEASURE(0.000001000000000),#261,'DISTANCE_ACCURACY_VALUE','');
#265=(GEOMETRIC_REPRESENTATION_CONTEXT(3)GLOBAL_UNCERTAINTY_ASSIGNED_CONTEXT((#263))GLOBAL_UNIT_ASSIGNED_CONTEXT((#253,#257,#261))REPRESENTATION_CONTEXT('','3D'));
#266=CARTESIAN_POINT('',(-2.749999999999996,9.800353250614393,12.000000000000002));
#267=CARTESIAN_POINT('',(2.442491E-015,9.800353250614393,13.652366702325791));
#268=CARTESIAN_POINT('',(-2.749999999999996,12.550353250614393,12.0));
#269=CARTESIAN_POINT('',(2.442491E-015,9.800353250614393,13.652366702325791));
#270=CARTESIAN_POINT('',(2.220446E-015,12.550353250614391,12.000000000000002));
#271=CARTESIAN_POINT('',(2.220446E-015,9.800353250614393,13.652366702325791));
#272=CARTESIAN_POINT('',(2.750000000000000,12.550353250614393,12.0));
#273=CARTESIAN_POINT('',(1.998401E-015,9.800353250614393,13.652366702325791));
#274=CARTESIAN_POINT('',(2.750000000000001,9.800353250614393,12.000000000000002));
#275=CARTESIAN_POINT('',(1.998401E-015,9.800353250614393,13.652366702325791));
#276=CARTESIAN_POINT('',(2.750000000000000,7.050353250614394,12.0));
#277=CARTESIAN_POINT('',(1.998401E-015,9.800353250614393,13.652366702325791));
#278=CARTESIAN_POINT('',(2.220446E-015,7.050353250614394,12.000000000000002));
#279=CARTESIAN_POINT('',(2.220446E-015,9.800353250614393,13.652366702325791));
#280=CARTESIAN_POINT('',(-2.749999999999996,7.050353250614394,12.0));
#281=CARTESIAN_POINT('',(2.442491E-015,9.800353250614393,13.652366702325791));
#282=CARTESIAN_POINT('',(-2.749999999999996,9.800353250614393,12.000000000000002));
#283=CARTESIAN_POINT('',(2.442491E-015,9.800353250614393,13.652366702325791));
#291=(BOUNDED_SURFACE()B_SPLINE_SURFACE(1,2,((#266,#268,#270,#272,#274,#276,#278,#280,#282),(#267,#269,#271,#273,#275,#277,#279,#281,#283)),.UNSPECIFIED.,.F.,.T.,.U.)B_SPLINE_SURFACE_WITH_KNOTS((2,2),(3,2,2,2,3),(-1.166633397215329,1.166633397215331),(0.0,2.159844949342983,4.319689898685965,6.479534848028949,8.639379797371930),.UNSPECIFIED.)GEOMETRIC_REPRESENTATION_ITEM()RATIONAL_B_SPLINE_SURFACE(((1.0,0.707106781186548,1.0,0.707106781186548,1.0,0.707106781186548,1.0,0.707106781186548,1.0),(1.0,0.707106781186548,1.0,0.707106781186548,1.0,0.707106781186548,1.0,0.707106781186548,1.0)))REPRESENTATION_ITEM('')SURFACE());
#292=CARTESIAN_POINT('',(2.750000000000003,9.800353250614393,12.000000000000002));
#293=VERTEX_POINT('',#292);
#294=CARTESIAN_POINT('',(2.220446E-015,9.800353250614393,12.000000000000002));
#295=DIRECTION('',(0.0,0.0,-1.0));
#296=DIRECTION('',(1.0,0.0,0.0));
#297=AXIS2_PLACEMENT_3D('',#294,#295,#296);
#298=CIRCLE('',#297,2.750000000000000);
#299=EDGE_CURVE('',#293,#293,#298,.T.);
#300=ORIENTED_EDGE('',*,*,#299,.T.);
#301=EDGE_LOOP('',(#300));
#302=FACE_OUTER_BOUND('',#301,.T.);
#303=ADVANCED_FACE('',(#302),#291,.F.);
#304=CARTESIAN_POINT('',(-2.749999999999998,9.800353250614393,2.000000000000002));
#305=CARTESIAN_POINT('',(-2.749999999999998,9.800353250614393,12.000000000000002));
#306=CARTESIAN_POINT('',(-2.749999999999997,12.550353250614393,2.000000000000002));
#307=CARTESIAN_POINT('',(-2.749999999999997,12.550353250614393,12.0));
#308=CARTESIAN_POINT('',(2.220446E-015,12.550353250614393,2.000000000000002));
#309=CARTESIAN_POINT('',(2.220446E-015,12.550353250614393,12.000000000000002));
#310=CARTESIAN_POINT('',(2.750000000000002,12.550353250614393,2.000000000000002));
#311=CARTESIAN_POINT('',(2.750000000000002,12.550353250614393,12.0));
#312=CARTESIAN_POINT('',(2.750000000000002,9.800353250614393,2.000000000000002));
#313=CARTESIAN_POINT('',(2.750000000000002,9.800353250614393,12.000000000000002));
#314=CARTESIAN_POINT('',(2.750000000000002,7.050353250614393,2.000000000000002));
#315=CARTESIAN_POINT('',(2.750000000000002,7.050353250614393,12.0));
#316=CARTESIAN_POINT('',(2.220446E-015,7.050353250614393,2.000000000000002));
#317=CARTESIAN_POINT('',(2.220446E-015,7.050353250614393,12.000000000000002));
#318=CARTESIAN_POINT('',(-2.749999999999997,7.050353250614393,2.000000000000002));
#319=CARTESIAN_POINT('',(-2.749999999999997,7.050353250614393,12.0));
#320=CARTESIAN_POINT('',(-2.749999999999998,9.800353250614393,2.000000000000002));
#321=CARTESIAN_POINT('',(-2.749999999999998,9.800353250614393,12.000000000000002));
#329=(BOUNDED_SURFACE()B_SPLINE_SURFACE(1,2,((#304,#306,#308,#310,#312,#314,#316,#318,#320),(#305,#307,#309,#311,#313,#315,#317,#319,#321)),.UNSPECIFIED.,.F.,.T.,.U.)B_SPLINE_SURFACE_WITH_KNOTS((2,2),(3,2,2,2,3),(-1.818181818181818,1.818181818181819),(0.0,4.319689898685965,8.639379797371930,12.959069696057897,17.278759594743860),.UNSPECIFIED.)GEOMETRIC_REPRESENTATION_ITEM()RATIONAL_B_SPLINE_SURFACE(((1.0,0.707106781186548,1.0,0.707106781186548,1.0,0.707106781186548,1.0,0.707106781186548,1.0),(1.0,0.707106781186548,1.0,0.707106781186548,1.0,0.707106781186548,1.0,0.707106781186548,1.0)))REPRESENTATION_ITEM('')SURFACE());
#330=CARTESIAN_POINT('',(2.750000000000003,9.800353250614393,2.000000000000002));
#331=VERTEX_POINT('',#330);
#332=CARTESIAN_POINT('',(2.220446E-015,9.800353250614393,2.000000000000002));
#333=DIRECTION('',(0.0,0.0,1.0));
#334=DIRECTION('',(1.0,0.0,0.0));
#335=AXIS2_PLACEMENT_3D('',#332,#333,#334);
#336=CIRCLE('',#335,2.750000000000000);
#337=EDGE_CURVE('',#331,#331,#336,.T.);
#338=ORIENTED_EDGE('',*,*,#337,.F.);
#339=EDGE_LOOP('',(#338));
#340=FACE_OUTER_BOUND('',#339,.T.);
#341=ORIENTED_EDGE('',*,*,#299,.F.);
#342=EDGE_LOOP('',(#341));
#343=FACE_BOUND('',#342,.T.);
#344=ADVANCED_FACE('',(#340,#343),#329,.F.);
#345=CARTESIAN_POINT('',(2.220446E-015,9.800353250614393,11.815427046898055));
#346=DIRECTION('',(0.0,0.0,-1.0));
#347=DIRECTION('',(-1.0,0.0,0.0));
#348=AXIS2_PLACEMENT_3D('',#345,#346,#347);
#349=CONICAL_SURFACE('',#348,8.113277116883911,19.036523780933372);
#350=CARTESIAN_POINT('',(-4.726554233767817,9.800353250614393,21.630854093796113));
#351=VERTEX_POINT('',#350);
#352=CARTESIAN_POINT('',(2.220446E-015,9.800353250614393,21.630854093796113));
#353=DIRECTION('',(0.0,0.0,1.0));
#354=DIRECTION('',(-1.0,0.0,0.0));
#355=AXIS2_PLACEMENT_3D('',#352,#353,#354);
#356=CIRCLE('',#355,4.726554233767820);
#357=EDGE_CURVE('',#351,#351,#356,.T.);
#358=ORIENTED_EDGE('',*,*,#357,.F.);
#359=EDGE_LOOP('',(#358));
#360=FACE_OUTER_BOUND('',#359,.T.);
#361=CARTESIAN_POINT('',(-11.500000000000000,9.800353250614393,2.000000000000001));
#362=VERTEX_POINT('',#361);
#363=CARTESIAN_POINT('',(2.220446E-015,9.800353250614393,2.000000000000001));
#364=DIRECTION('',(0.0,0.0,1.0));
#365=DIRECTION('',(-1.0,0.0,0.0));
#366=AXIS2_PLACEMENT_3D('',#363,#364,#365);
#367=CIRCLE('',#366,11.500000000000002);
#368=EDGE_CURVE('',#362,#362,#367,.T.);
#369=ORIENTED_EDGE('',*,*,#368,.T.);
#370=EDGE_LOOP('',(#369));
#371=FACE_BOUND('',#370,.T.);
#372=ADVANCED_FACE('',(#360,#371),#349,.T.);
#373=CARTESIAN_POINT('',(2.220446E-015,9.800353250614393,20.000000000000004));
#374=DIRECTION('',(0.0,-1.0,0.0));
#375=DIRECTION('',(1.0,0.0,0.0));
#376=AXIS2_PLACEMENT_3D('',#373,#374,#375);
#377=SPHERICAL_SURFACE('',#376,5.0);
#378=ORIENTED_EDGE('',*,*,#357,.T.);
#379=EDGE_LOOP('',(#378));
#380=FACE_OUTER_BOUND('',#379,.T.);
#381=ADVANCED_FACE('',(#380),#377,.T.);
#382=CARTESIAN_POINT('',(-5.749999999999998,9.800353250614393,2.000000000000002));
#383=DIRECTION('',(0.0,0.0,-1.0));
#384=DIRECTION('',(0.0,1.0,0.0));
#385=AXIS2_PLACEMENT_3D('',#382,#383,#384);
#386=PLANE('',#385);
#387=ORIENTED_EDGE('',*,*,#368,.F.);
#388=EDGE_LOOP('',(#387));
#389=FACE_OUTER_BOUND('',#388,.T.);
#390=ORIENTED_EDGE('',*,*,#337,.T.);
#391=EDGE_LOOP('',(#390));
#392=FACE_BOUND('',#391,.T.);
#393=ADVANCED_FACE('',(#389,#392),#386,.T.);
#394=CLOSED_SHELL('',(#303,#344,#372,#381,#393));
#395=MANIFOLD_SOLID_BREP('T\X2\011B\X0\leso2',#394);
#396=COLOUR_RGB('',0.309803992509842,0.309803992509842,0.309803992509842);
#397=FILL_AREA_STYLE_COLOUR('',#396);
#398=FILL_AREA_STYLE('',(#397));
#399=SURFACE_STYLE_FILL_AREA(#398);
#400=SURFACE_SIDE_STYLE('',(#399));
#401=SURFACE_STYLE_USAGE(.BOTH.,#400);
#402=PRESENTATION_STYLE_ASSIGNMENT((#401));
#403=STYLED_ITEM('',(#402),#303);
#404=STYLED_ITEM('',(#402),#344);
#405=STYLED_ITEM('',(#402),#372);
#406=STYLED_ITEM('',(#402),#381);
#407=STYLED_ITEM('',(#402),#393);
#408=MECHANICAL_DESIGN_GEOMETRIC_PRESENTATION_REPRESENTATION('',(#403,#404,#405,#406,#407),#265);
#409=STYLED_ITEM('',(#238),#395);
ENDSEC;
END-ISO-10303-21;
