ISO-10303-21;
HEADER;
/* Generated by software containing ST-Developer
 * from STEP Tools, Inc. (www.steptools.com) 
 */

FILE_DESCRIPTION(
/* description */ ('Pozi\X2\010D\X0\n\X\ED spojka'),
/* implementation_level */ '2;1');

FILE_NAME(
/* name */ 
'C:\\InventorWorking - Vault\\Projects\\Alutec\\Alutec KK\\Rendery pro
duktow\\Brakujace elementy ANIA 2\\Elementy polaczeniowe\\324547.stp',
/* time_stamp */ '2022-08-12T07:47:28+02:00',
/* author */ ('aluteckkpl_am'),
/* organization */ (''),
/* preprocessor_version */ 'ST-DEVELOPER v18.1',
/* originating_system */ 'Autodesk Inventor 2021',
/* authorisation */ '');

FILE_SCHEMA (('CONFIG_CONTROL_DESIGN'));
ENDSEC;

DATA;
#10=MECHANICAL_DESIGN_GEOMETRIC_PRESENTATION_REPRESENTATION('',(#13),#435);
#11=SHAPE_REPRESENTATION_RELATIONSHIP('SRR','None',#442,#12);
#12=ADVANCED_BREP_SHAPE_REPRESENTATION('',(#14),#434);
#13=STYLED_ITEM('',(#451),#14);
#14=MANIFOLD_SOLID_BREP('T\X2\011B\X0\leso1',#254);
#15=LINE('',#375,#41);
#16=LINE('',#378,#42);
#17=LINE('',#385,#43);
#18=LINE('',#387,#44);
#19=LINE('',#389,#45);
#20=LINE('',#390,#46);
#21=LINE('',#393,#47);
#22=LINE('',#395,#48);
#23=LINE('',#396,#49);
#24=LINE('',#399,#50);
#25=LINE('',#401,#51);
#26=LINE('',#402,#52);
#27=LINE('',#405,#53);
#28=LINE('',#407,#54);
#29=LINE('',#408,#55);
#30=LINE('',#411,#56);
#31=LINE('',#413,#57);
#32=LINE('',#414,#58);
#33=LINE('',#417,#59);
#34=LINE('',#419,#60);
#35=LINE('',#420,#61);
#36=LINE('',#423,#62);
#37=LINE('',#425,#63);
#38=LINE('',#426,#64);
#39=LINE('',#428,#65);
#40=LINE('',#429,#66);
#41=VECTOR('',#310,6.75);
#42=VECTOR('',#313,4.25);
#43=VECTOR('',#320,10.);
#44=VECTOR('',#321,10.);
#45=VECTOR('',#322,10.);
#46=VECTOR('',#323,10.);
#47=VECTOR('',#326,10.);
#48=VECTOR('',#327,10.);
#49=VECTOR('',#328,10.);
#50=VECTOR('',#331,10.);
#51=VECTOR('',#332,10.);
#52=VECTOR('',#333,10.);
#53=VECTOR('',#336,10.);
#54=VECTOR('',#337,10.);
#55=VECTOR('',#338,10.);
#56=VECTOR('',#341,10.);
#57=VECTOR('',#342,10.);
#58=VECTOR('',#343,10.);
#59=VECTOR('',#346,10.);
#60=VECTOR('',#347,10.);
#61=VECTOR('',#348,10.);
#62=VECTOR('',#351,10.);
#63=VECTOR('',#352,10.);
#64=VECTOR('',#353,10.);
#65=VECTOR('',#356,10.);
#66=VECTOR('',#357,10.);
#67=CYLINDRICAL_SURFACE('',#278,6.75);
#68=CYLINDRICAL_SURFACE('',#281,4.25);
#69=FACE_BOUND('',#86,.T.);
#70=FACE_BOUND('',#93,.T.);
#71=FACE_BOUND('',#96,.T.);
#72=FACE_OUTER_BOUND('',#85,.T.);
#73=FACE_OUTER_BOUND('',#87,.T.);
#74=FACE_OUTER_BOUND('',#88,.T.);
#75=FACE_OUTER_BOUND('',#89,.T.);
#76=FACE_OUTER_BOUND('',#90,.T.);
#77=FACE_OUTER_BOUND('',#91,.T.);
#78=FACE_OUTER_BOUND('',#92,.T.);
#79=FACE_OUTER_BOUND('',#94,.T.);
#80=FACE_OUTER_BOUND('',#95,.T.);
#81=FACE_OUTER_BOUND('',#97,.T.);
#82=FACE_OUTER_BOUND('',#98,.T.);
#83=FACE_OUTER_BOUND('',#99,.T.);
#84=FACE_OUTER_BOUND('',#100,.T.);
#85=EDGE_LOOP('',(#164,#165));
#86=EDGE_LOOP('',(#166));
#87=EDGE_LOOP('',(#167,#168,#169,#170,#171,#172));
#88=EDGE_LOOP('',(#173,#174,#175,#176,#177));
#89=EDGE_LOOP('',(#178,#179,#180,#181));
#90=EDGE_LOOP('',(#182,#183,#184,#185));
#91=EDGE_LOOP('',(#186,#187,#188,#189));
#92=EDGE_LOOP('',(#190,#191,#192,#193));
#93=EDGE_LOOP('',(#194,#195));
#94=EDGE_LOOP('',(#196,#197,#198,#199));
#95=EDGE_LOOP('',(#200,#201,#202,#203));
#96=EDGE_LOOP('',(#204,#205));
#97=EDGE_LOOP('',(#206,#207,#208,#209));
#98=EDGE_LOOP('',(#210,#211,#212,#213));
#99=EDGE_LOOP('',(#214,#215,#216,#217,#218,#219,#220,#221));
#100=EDGE_LOOP('',(#222,#223,#224,#225,#226,#227,#228,#229));
#101=CIRCLE('',#275,6.75);
#102=CIRCLE('',#276,6.75);
#103=CIRCLE('',#277,4.25);
#104=CIRCLE('',#279,6.75);
#105=CIRCLE('',#280,6.75);
#106=CIRCLE('',#282,4.25);
#107=CIRCLE('',#283,4.25);
#108=VERTEX_POINT('',#364);
#109=VERTEX_POINT('',#365);
#110=VERTEX_POINT('',#368);
#111=VERTEX_POINT('',#371);
#112=VERTEX_POINT('',#372);
#113=VERTEX_POINT('',#377);
#114=VERTEX_POINT('',#379);
#115=VERTEX_POINT('',#383);
#116=VERTEX_POINT('',#384);
#117=VERTEX_POINT('',#386);
#118=VERTEX_POINT('',#388);
#119=VERTEX_POINT('',#392);
#120=VERTEX_POINT('',#394);
#121=VERTEX_POINT('',#398);
#122=VERTEX_POINT('',#400);
#123=VERTEX_POINT('',#404);
#124=VERTEX_POINT('',#406);
#125=VERTEX_POINT('',#410);
#126=VERTEX_POINT('',#412);
#127=VERTEX_POINT('',#416);
#128=VERTEX_POINT('',#418);
#129=VERTEX_POINT('',#422);
#130=VERTEX_POINT('',#424);
#131=EDGE_CURVE('',#108,#109,#101,.T.);
#132=EDGE_CURVE('',#109,#108,#102,.T.);
#133=EDGE_CURVE('',#110,#110,#103,.T.);
#134=EDGE_CURVE('',#111,#112,#104,.T.);
#135=EDGE_CURVE('',#112,#111,#105,.T.);
#136=EDGE_CURVE('',#112,#109,#15,.T.);
#137=EDGE_CURVE('',#110,#113,#16,.T.);
#138=EDGE_CURVE('',#114,#113,#106,.T.);
#139=EDGE_CURVE('',#113,#114,#107,.T.);
#140=EDGE_CURVE('',#115,#116,#17,.T.);
#141=EDGE_CURVE('',#117,#116,#18,.T.);
#142=EDGE_CURVE('',#118,#117,#19,.T.);
#143=EDGE_CURVE('',#118,#115,#20,.T.);
#144=EDGE_CURVE('',#116,#119,#21,.T.);
#145=EDGE_CURVE('',#120,#119,#22,.T.);
#146=EDGE_CURVE('',#117,#120,#23,.T.);
#147=EDGE_CURVE('',#119,#121,#24,.T.);
#148=EDGE_CURVE('',#122,#121,#25,.T.);
#149=EDGE_CURVE('',#120,#122,#26,.T.);
#150=EDGE_CURVE('',#121,#123,#27,.T.);
#151=EDGE_CURVE('',#124,#123,#28,.T.);
#152=EDGE_CURVE('',#122,#124,#29,.T.);
#153=EDGE_CURVE('',#123,#125,#30,.T.);
#154=EDGE_CURVE('',#126,#125,#31,.T.);
#155=EDGE_CURVE('',#124,#126,#32,.T.);
#156=EDGE_CURVE('',#125,#127,#33,.T.);
#157=EDGE_CURVE('',#128,#127,#34,.T.);
#158=EDGE_CURVE('',#126,#128,#35,.T.);
#159=EDGE_CURVE('',#127,#129,#36,.T.);
#160=EDGE_CURVE('',#130,#129,#37,.T.);
#161=EDGE_CURVE('',#128,#130,#38,.T.);
#162=EDGE_CURVE('',#129,#115,#39,.T.);
#163=EDGE_CURVE('',#130,#118,#40,.T.);
#164=ORIENTED_EDGE('',*,*,#131,.T.);
#165=ORIENTED_EDGE('',*,*,#132,.T.);
#166=ORIENTED_EDGE('',*,*,#133,.F.);
#167=ORIENTED_EDGE('',*,*,#134,.F.);
#168=ORIENTED_EDGE('',*,*,#135,.F.);
#169=ORIENTED_EDGE('',*,*,#136,.T.);
#170=ORIENTED_EDGE('',*,*,#131,.F.);
#171=ORIENTED_EDGE('',*,*,#132,.F.);
#172=ORIENTED_EDGE('',*,*,#136,.F.);
#173=ORIENTED_EDGE('',*,*,#133,.T.);
#174=ORIENTED_EDGE('',*,*,#137,.T.);
#175=ORIENTED_EDGE('',*,*,#138,.F.);
#176=ORIENTED_EDGE('',*,*,#139,.F.);
#177=ORIENTED_EDGE('',*,*,#137,.F.);
#178=ORIENTED_EDGE('',*,*,#140,.T.);
#179=ORIENTED_EDGE('',*,*,#141,.F.);
#180=ORIENTED_EDGE('',*,*,#142,.F.);
#181=ORIENTED_EDGE('',*,*,#143,.T.);
#182=ORIENTED_EDGE('',*,*,#144,.T.);
#183=ORIENTED_EDGE('',*,*,#145,.F.);
#184=ORIENTED_EDGE('',*,*,#146,.F.);
#185=ORIENTED_EDGE('',*,*,#141,.T.);
#186=ORIENTED_EDGE('',*,*,#147,.T.);
#187=ORIENTED_EDGE('',*,*,#148,.F.);
#188=ORIENTED_EDGE('',*,*,#149,.F.);
#189=ORIENTED_EDGE('',*,*,#145,.T.);
#190=ORIENTED_EDGE('',*,*,#150,.T.);
#191=ORIENTED_EDGE('',*,*,#151,.F.);
#192=ORIENTED_EDGE('',*,*,#152,.F.);
#193=ORIENTED_EDGE('',*,*,#148,.T.);
#194=ORIENTED_EDGE('',*,*,#134,.T.);
#195=ORIENTED_EDGE('',*,*,#135,.T.);
#196=ORIENTED_EDGE('',*,*,#153,.T.);
#197=ORIENTED_EDGE('',*,*,#154,.F.);
#198=ORIENTED_EDGE('',*,*,#155,.F.);
#199=ORIENTED_EDGE('',*,*,#151,.T.);
#200=ORIENTED_EDGE('',*,*,#156,.T.);
#201=ORIENTED_EDGE('',*,*,#157,.F.);
#202=ORIENTED_EDGE('',*,*,#158,.F.);
#203=ORIENTED_EDGE('',*,*,#154,.T.);
#204=ORIENTED_EDGE('',*,*,#138,.T.);
#205=ORIENTED_EDGE('',*,*,#139,.T.);
#206=ORIENTED_EDGE('',*,*,#159,.T.);
#207=ORIENTED_EDGE('',*,*,#160,.F.);
#208=ORIENTED_EDGE('',*,*,#161,.F.);
#209=ORIENTED_EDGE('',*,*,#157,.T.);
#210=ORIENTED_EDGE('',*,*,#162,.T.);
#211=ORIENTED_EDGE('',*,*,#143,.F.);
#212=ORIENTED_EDGE('',*,*,#163,.F.);
#213=ORIENTED_EDGE('',*,*,#160,.T.);
#214=ORIENTED_EDGE('',*,*,#140,.F.);
#215=ORIENTED_EDGE('',*,*,#162,.F.);
#216=ORIENTED_EDGE('',*,*,#159,.F.);
#217=ORIENTED_EDGE('',*,*,#156,.F.);
#218=ORIENTED_EDGE('',*,*,#153,.F.);
#219=ORIENTED_EDGE('',*,*,#150,.F.);
#220=ORIENTED_EDGE('',*,*,#147,.F.);
#221=ORIENTED_EDGE('',*,*,#144,.F.);
#222=ORIENTED_EDGE('',*,*,#163,.T.);
#223=ORIENTED_EDGE('',*,*,#142,.T.);
#224=ORIENTED_EDGE('',*,*,#146,.T.);
#225=ORIENTED_EDGE('',*,*,#149,.T.);
#226=ORIENTED_EDGE('',*,*,#152,.T.);
#227=ORIENTED_EDGE('',*,*,#155,.T.);
#228=ORIENTED_EDGE('',*,*,#158,.T.);
#229=ORIENTED_EDGE('',*,*,#161,.T.);
#230=PLANE('',#274);
#231=PLANE('',#284);
#232=PLANE('',#285);
#233=PLANE('',#286);
#234=PLANE('',#287);
#235=PLANE('',#288);
#236=PLANE('',#289);
#237=PLANE('',#290);
#238=PLANE('',#291);
#239=PLANE('',#292);
#240=PLANE('',#293);
#241=ADVANCED_FACE('',(#72,#69),#230,.T.);
#242=ADVANCED_FACE('',(#73),#67,.F.);
#243=ADVANCED_FACE('',(#74),#68,.F.);
#244=ADVANCED_FACE('',(#75),#231,.T.);
#245=ADVANCED_FACE('',(#76),#232,.T.);
#246=ADVANCED_FACE('',(#77),#233,.T.);
#247=ADVANCED_FACE('',(#78,#70),#234,.T.);
#248=ADVANCED_FACE('',(#79),#235,.T.);
#249=ADVANCED_FACE('',(#80,#71),#236,.T.);
#250=ADVANCED_FACE('',(#81),#237,.T.);
#251=ADVANCED_FACE('',(#82),#238,.T.);
#252=ADVANCED_FACE('',(#83),#239,.T.);
#253=ADVANCED_FACE('',(#84),#240,.F.);
#254=CLOSED_SHELL('',(#241,#242,#243,#244,#245,#246,#247,#248,#249,#250,
#251,#252,#253));
#255=DERIVED_UNIT_ELEMENT(#257,1.);
#256=DERIVED_UNIT_ELEMENT(#437,3.);
#257=(
MASS_UNIT()
NAMED_UNIT(*)
SI_UNIT($,.GRAM.)
);
#258=DERIVED_UNIT((#255,#256));
#259=MEASURE_REPRESENTATION_ITEM('density measure',
POSITIVE_RATIO_MEASURE(2.71),#258);
#260=PROPERTY_DEFINITION_REPRESENTATION(#265,#262);
#261=PROPERTY_DEFINITION_REPRESENTATION(#266,#263);
#262=REPRESENTATION('material name',(#264),#434);
#263=REPRESENTATION('density',(#259),#434);
#264=DESCRIPTIVE_REPRESENTATION_ITEM('Aluminium-6061','Aluminium-6061');
#265=PROPERTY_DEFINITION('material property','material name',#444);
#266=PROPERTY_DEFINITION('material property','density of part',#444);
#267=DATE_TIME_ROLE('creation_date');
#268=CC_DESIGN_DATE_AND_TIME_ASSIGNMENT(#269,#267,(#444));
#269=DATE_AND_TIME(#270,#271);
#270=CALENDAR_DATE(2010,4,1);
#271=LOCAL_TIME(0,0,0.,#272);
#272=COORDINATED_UNIVERSAL_TIME_OFFSET(0,0,.BEHIND.);
#273=AXIS2_PLACEMENT_3D('placement',#362,#294,#295);
#274=AXIS2_PLACEMENT_3D('',#363,#296,#297);
#275=AXIS2_PLACEMENT_3D('',#366,#298,#299);
#276=AXIS2_PLACEMENT_3D('',#367,#300,#301);
#277=AXIS2_PLACEMENT_3D('',#369,#302,#303);
#278=AXIS2_PLACEMENT_3D('',#370,#304,#305);
#279=AXIS2_PLACEMENT_3D('',#373,#306,#307);
#280=AXIS2_PLACEMENT_3D('',#374,#308,#309);
#281=AXIS2_PLACEMENT_3D('',#376,#311,#312);
#282=AXIS2_PLACEMENT_3D('',#380,#314,#315);
#283=AXIS2_PLACEMENT_3D('',#381,#316,#317);
#284=AXIS2_PLACEMENT_3D('',#382,#318,#319);
#285=AXIS2_PLACEMENT_3D('',#391,#324,#325);
#286=AXIS2_PLACEMENT_3D('',#397,#329,#330);
#287=AXIS2_PLACEMENT_3D('',#403,#334,#335);
#288=AXIS2_PLACEMENT_3D('',#409,#339,#340);
#289=AXIS2_PLACEMENT_3D('',#415,#344,#345);
#290=AXIS2_PLACEMENT_3D('',#421,#349,#350);
#291=AXIS2_PLACEMENT_3D('',#427,#354,#355);
#292=AXIS2_PLACEMENT_3D('',#430,#358,#359);
#293=AXIS2_PLACEMENT_3D('',#431,#360,#361);
#294=DIRECTION('axis',(0.,0.,1.));
#295=DIRECTION('refdir',(1.,0.,0.));
#296=DIRECTION('center_axis',(2.66453525910038E-16,0.,1.));
#297=DIRECTION('ref_axis',(1.,0.,-2.66453525910038E-16));
#298=DIRECTION('center_axis',(2.66453525910038E-16,0.,1.));
#299=DIRECTION('ref_axis',(1.,0.,-2.66453525910038E-16));
#300=DIRECTION('center_axis',(2.66453525910038E-16,0.,1.));
#301=DIRECTION('ref_axis',(1.,0.,-2.66453525910038E-16));
#302=DIRECTION('center_axis',(2.66453525910038E-16,0.,1.));
#303=DIRECTION('ref_axis',(1.,0.,-2.66453525910038E-16));
#304=DIRECTION('center_axis',(2.66453525910038E-16,0.,1.));
#305=DIRECTION('ref_axis',(1.,0.,-2.66453525910038E-16));
#306=DIRECTION('center_axis',(-2.66453525910038E-16,0.,-1.));
#307=DIRECTION('ref_axis',(1.,0.,-2.66453525910038E-16));
#308=DIRECTION('center_axis',(-2.66453525910038E-16,0.,-1.));
#309=DIRECTION('ref_axis',(1.,0.,-2.66453525910038E-16));
#310=DIRECTION('',(-2.66453525910038E-16,0.,-1.));
#311=DIRECTION('center_axis',(2.66453525910038E-16,0.,1.));
#312=DIRECTION('ref_axis',(1.,0.,-2.66453525910038E-16));
#313=DIRECTION('',(-2.66453525910038E-16,0.,-1.));
#314=DIRECTION('center_axis',(1.30614473485313E-16,0.,1.));
#315=DIRECTION('ref_axis',(1.,0.,-2.66453525910038E-16));
#316=DIRECTION('center_axis',(1.30614473485313E-16,0.,1.));
#317=DIRECTION('ref_axis',(1.,0.,-2.66453525910038E-16));
#318=DIRECTION('center_axis',(-1.,0.,5.55111512312578E-16));
#319=DIRECTION('ref_axis',(5.55111512312578E-16,0.,1.));
#320=DIRECTION('',(-5.55111512312578E-16,0.,-1.));
#321=DIRECTION('',(0.,1.,0.));
#322=DIRECTION('',(-5.55111512312578E-16,0.,-1.));
#323=DIRECTION('',(0.,1.,0.));
#324=DIRECTION('center_axis',(-1.38777878078145E-16,0.,-1.));
#325=DIRECTION('ref_axis',(-1.,0.,1.38777878078145E-16));
#326=DIRECTION('',(1.,0.,-1.38777878078145E-16));
#327=DIRECTION('',(0.,1.,0.));
#328=DIRECTION('',(1.,0.,-1.38777878078145E-16));
#329=DIRECTION('center_axis',(1.,0.,-4.44089209850063E-16));
#330=DIRECTION('ref_axis',(-4.44089209850063E-16,0.,-1.));
#331=DIRECTION('',(4.44089209850063E-16,0.,1.));
#332=DIRECTION('',(0.,1.,0.));
#333=DIRECTION('',(4.44089209850063E-16,0.,1.));
#334=DIRECTION('center_axis',(2.66453525910038E-16,0.,1.));
#335=DIRECTION('ref_axis',(1.,0.,-2.66453525910038E-16));
#336=DIRECTION('',(-1.,0.,2.66453525910038E-16));
#337=DIRECTION('',(0.,1.,0.));
#338=DIRECTION('',(-1.,0.,2.66453525910038E-16));
#339=DIRECTION('center_axis',(-1.,0.,2.77555756156289E-16));
#340=DIRECTION('ref_axis',(2.77555756156289E-16,0.,1.));
#341=DIRECTION('',(-2.77555756156289E-16,0.,-1.));
#342=DIRECTION('',(0.,1.,0.));
#343=DIRECTION('',(-2.77555756156289E-16,0.,-1.));
#344=DIRECTION('center_axis',(-1.30614473485313E-16,0.,-1.));
#345=DIRECTION('ref_axis',(-1.,0.,1.30614473485313E-16));
#346=DIRECTION('',(1.,0.,-1.30614473485313E-16));
#347=DIRECTION('',(0.,1.,0.));
#348=DIRECTION('',(1.,0.,-1.30614473485313E-16));
#349=DIRECTION('center_axis',(1.,0.,-3.80647894157197E-16));
#350=DIRECTION('ref_axis',(-3.80647894157197E-16,0.,-1.));
#351=DIRECTION('',(3.80647894157197E-16,0.,1.));
#352=DIRECTION('',(0.,1.,0.));
#353=DIRECTION('',(3.80647894157197E-16,0.,1.));
#354=DIRECTION('center_axis',(-1.2490009027033E-16,0.,-1.));
#355=DIRECTION('ref_axis',(-1.,0.,1.2490009027033E-16));
#356=DIRECTION('',(1.,0.,-1.2490009027033E-16));
#357=DIRECTION('',(1.,0.,-1.2490009027033E-16));
#358=DIRECTION('center_axis',(0.,1.,0.));
#359=DIRECTION('ref_axis',(0.,0.,1.));
#360=DIRECTION('center_axis',(0.,1.,0.));
#361=DIRECTION('ref_axis',(0.,0.,1.));
#362=CARTESIAN_POINT('',(0.,0.,0.));
#363=CARTESIAN_POINT('Origin',(-9.,0.,1.));
#364=CARTESIAN_POINT('',(-2.25,0.,0.999999999999999));
#365=CARTESIAN_POINT('',(-15.75,-8.26636589424463E-16,1.));
#366=CARTESIAN_POINT('Origin',(-9.,0.,1.));
#367=CARTESIAN_POINT('Origin',(-9.,0.,1.));
#368=CARTESIAN_POINT('',(-13.25,0.,1.));
#369=CARTESIAN_POINT('Origin',(-9.,0.,1.));
#370=CARTESIAN_POINT('Origin',(-9.,0.,3.75));
#371=CARTESIAN_POINT('',(-2.25,0.,6.5));
#372=CARTESIAN_POINT('',(-15.75,-8.26636589424463E-16,6.5));
#373=CARTESIAN_POINT('Origin',(-9.,0.,6.5));
#374=CARTESIAN_POINT('Origin',(-9.,0.,6.5));
#375=CARTESIAN_POINT('',(-15.75,-8.26636589424463E-16,3.75));
#376=CARTESIAN_POINT('Origin',(-9.,0.,-5.5));
#377=CARTESIAN_POINT('',(-13.25,-5.20474889637625E-16,-17.5));
#378=CARTESIAN_POINT('',(-13.25,-5.20474889637625E-16,-5.5));
#379=CARTESIAN_POINT('',(-4.75,0.,-17.5));
#380=CARTESIAN_POINT('Origin',(-9.,0.,-17.5));
#381=CARTESIAN_POINT('Origin',(-9.,0.,-17.5));
#382=CARTESIAN_POINT('Origin',(5.,-20.,-6.24500451351651E-16));
#383=CARTESIAN_POINT('',(5.,20.,-6.24500451351651E-16));
#384=CARTESIAN_POINT('',(5.,20.,-1.));
#385=CARTESIAN_POINT('',(5.,20.,-6.24500451351651E-16));
#386=CARTESIAN_POINT('',(5.,-20.,-1.));
#387=CARTESIAN_POINT('',(5.,-20.,-1.));
#388=CARTESIAN_POINT('',(5.,-20.,-6.24500451351651E-16));
#389=CARTESIAN_POINT('',(5.,-20.,-6.24500451351651E-16));
#390=CARTESIAN_POINT('',(5.,-20.,-6.24500451351651E-16));
#391=CARTESIAN_POINT('Origin',(5.,-20.,-1.));
#392=CARTESIAN_POINT('',(8.,20.,-1.));
#393=CARTESIAN_POINT('',(5.,20.,-1.));
#394=CARTESIAN_POINT('',(8.,-20.,-1.));
#395=CARTESIAN_POINT('',(8.,-20.,-1.));
#396=CARTESIAN_POINT('',(5.,-20.,-1.));
#397=CARTESIAN_POINT('Origin',(8.,-20.,-1.));
#398=CARTESIAN_POINT('',(8.,20.,6.5));
#399=CARTESIAN_POINT('',(8.,20.,-1.));
#400=CARTESIAN_POINT('',(8.,-20.,6.5));
#401=CARTESIAN_POINT('',(8.,-20.,6.5));
#402=CARTESIAN_POINT('',(8.,-20.,-1.));
#403=CARTESIAN_POINT('Origin',(8.,-20.,6.5));
#404=CARTESIAN_POINT('',(-17.,20.,6.5));
#405=CARTESIAN_POINT('',(8.,20.,6.5));
#406=CARTESIAN_POINT('',(-17.,-20.,6.5));
#407=CARTESIAN_POINT('',(-17.,-20.,6.5));
#408=CARTESIAN_POINT('',(8.,-20.,6.5));
#409=CARTESIAN_POINT('Origin',(-17.,-20.,6.5));
#410=CARTESIAN_POINT('',(-17.,20.,-17.5));
#411=CARTESIAN_POINT('',(-17.,20.,6.5));
#412=CARTESIAN_POINT('',(-17.,-20.,-17.5));
#413=CARTESIAN_POINT('',(-17.,-20.,-17.5));
#414=CARTESIAN_POINT('',(-17.,-20.,6.5));
#415=CARTESIAN_POINT('Origin',(-17.,-20.,-17.5));
#416=CARTESIAN_POINT('',(-6.66133814775094E-15,20.,-17.5));
#417=CARTESIAN_POINT('',(-17.,20.,-17.5));
#418=CARTESIAN_POINT('',(-6.66133814775094E-15,-20.,-17.5));
#419=CARTESIAN_POINT('',(-6.66133814775094E-15,-20.,-17.5));
#420=CARTESIAN_POINT('',(-17.,-20.,-17.5));
#421=CARTESIAN_POINT('Origin',(-6.66133814775094E-15,-20.,-17.5));
#422=CARTESIAN_POINT('',(0.,20.,0.));
#423=CARTESIAN_POINT('',(-6.66133814775094E-15,20.,-17.5));
#424=CARTESIAN_POINT('',(0.,-20.,0.));
#425=CARTESIAN_POINT('',(0.,-20.,0.));
#426=CARTESIAN_POINT('',(-6.66133814775094E-15,-20.,-17.5));
#427=CARTESIAN_POINT('Origin',(0.,-20.,0.));
#428=CARTESIAN_POINT('',(0.,20.,0.));
#429=CARTESIAN_POINT('',(0.,-20.,0.));
#430=CARTESIAN_POINT('Origin',(-5.68,20.,-4.03));
#431=CARTESIAN_POINT('Origin',(-5.68,-20.,-4.03));
#432=UNCERTAINTY_MEASURE_WITH_UNIT(LENGTH_MEASURE(0.01),#436,
'DISTANCE_ACCURACY_VALUE',
'Maximum model space distance between geometric entities at asserted c
onnectivities');
#433=UNCERTAINTY_MEASURE_WITH_UNIT(LENGTH_MEASURE(0.01),#436,
'DISTANCE_ACCURACY_VALUE',
'Maximum model space distance between geometric entities at asserted c
onnectivities');
#434=(
GEOMETRIC_REPRESENTATION_CONTEXT(3)
GLOBAL_UNCERTAINTY_ASSIGNED_CONTEXT((#432))
GLOBAL_UNIT_ASSIGNED_CONTEXT((#436,#438,#439))
REPRESENTATION_CONTEXT('','3D')
);
#435=(
GEOMETRIC_REPRESENTATION_CONTEXT(3)
GLOBAL_UNCERTAINTY_ASSIGNED_CONTEXT((#433))
GLOBAL_UNIT_ASSIGNED_CONTEXT((#436,#438,#439))
REPRESENTATION_CONTEXT('','3D')
);
#436=(
LENGTH_UNIT()
NAMED_UNIT(*)
SI_UNIT(.MILLI.,.METRE.)
);
#437=(
LENGTH_UNIT()
NAMED_UNIT(*)
SI_UNIT(.CENTI.,.METRE.)
);
#438=(
NAMED_UNIT(*)
PLANE_ANGLE_UNIT()
SI_UNIT($,.RADIAN.)
);
#439=(
NAMED_UNIT(*)
SI_UNIT($,.STERADIAN.)
SOLID_ANGLE_UNIT()
);
#440=SHAPE_DEFINITION_REPRESENTATION(#441,#442);
#441=PRODUCT_DEFINITION_SHAPE('',$,#444);
#442=SHAPE_REPRESENTATION('',(#273),#434);
#443=DESIGN_CONTEXT('part definition',#448,'design');
#444=PRODUCT_DEFINITION('324547','324547',#445,#443);
#445=PRODUCT_DEFINITION_FORMATION('',$,#450);
#446=PRODUCT_RELATED_PRODUCT_CATEGORY('324547','324547',(#450));
#447=APPLICATION_PROTOCOL_DEFINITION('international standard',
'ap203_configuration_controlled_3d_design_of_mechanical_parts_and_asse
mblies_mim_lf',2004,#448);
#448=APPLICATION_CONTEXT(
'Configuration Controlled 3D Design of Mechanical Parts and Assemblies');
#449=MECHANICAL_CONTEXT('part definition',#448,'mechanical');
#450=PRODUCT('324547','324547','Pozi\X2\010D\X0\n\X\ED spojka',(#449));
#451=PRESENTATION_STYLE_ASSIGNMENT((#452));
#452=SURFACE_STYLE_USAGE(.BOTH.,#455);
#453=SURFACE_STYLE_RENDERING_WITH_PROPERTIES($,#459,(#454));
#454=SURFACE_STYLE_TRANSPARENT(0.);
#455=SURFACE_SIDE_STYLE('',(#456,#453));
#456=SURFACE_STYLE_FILL_AREA(#457);
#457=FILL_AREA_STYLE('',(#458));
#458=FILL_AREA_STYLE_COLOUR('',#459);
#459=COLOUR_RGB('',0.847058823529412,0.83921568627451,0.83921568627451);
ENDSEC;
END-ISO-10303-21;
