ISO-10303-21;
HEADER;
/* Generated by software containing ST-Developer
 * from STEP Tools, Inc. (www.steptools.com) 
 */

FILE_DESCRIPTION(
/* description */ ('Korek za\X2\015B\X0\lepiaj\X2\0105\X0\cy D=13,5mm 
Szary'),
/* implementation_level */ '2;1');

FILE_NAME(
/* name */ 
'C:\\InventorWorking - Vault\\Projects\\Alutec\\Alutec KK\\Rendery pro
duktow\\Brakujace elementy OBJ\\Elementy zaslepiajace\\220013.s.obj.st
p',
/* time_stamp */ '2022-07-29T06:23:43+02:00',
/* author */ ('aluteckkpl_am'),
/* organization */ (''),
/* preprocessor_version */ 'ST-DEVELOPER v18.1',
/* originating_system */ 'Autodesk Inventor 2021',
/* authorisation */ '');

FILE_SCHEMA (('CONFIG_CONTROL_DESIGN'));
ENDSEC;

DATA;
#10=MECHANICAL_DESIGN_GEOMETRIC_PRESENTATION_REPRESENTATION('',(#13),#265);
#11=SHAPE_REPRESENTATION_RELATIONSHIP('SRR','None',#272,#12);
#12=ADVANCED_BREP_SHAPE_REPRESENTATION('',(#14),#264);
#13=STYLED_ITEM('',(#281),#14);
#14=MANIFOLD_SOLID_BREP('T\X2\011B\X0\leso1',#122);
#15=(
BOUNDED_SURFACE()
B_SPLINE_SURFACE(2,2,((#226,#227,#228,#229,#230,#231,#232,#233,#234),(#235,
#236,#237,#238,#239,#240,#241,#242,#243),(#244,#245,#246,#247,#248,#249,
#250,#251,#252)),.UNSPECIFIED.,.F.,.T.,.F.)
B_SPLINE_SURFACE_WITH_KNOTS((3,3),(3,2,2,2,3),(1.28211692878304,1.57059256805746),
(-3.14159265358979,-1.5707963267949,0.,1.5707963267949,3.14159265358979),
 .UNSPECIFIED.)
GEOMETRIC_REPRESENTATION_ITEM()
RATIONAL_B_SPLINE_SURFACE(((1.,0.707106781186548,1.,0.707106781186548,1.,
0.707106781186548,1.,0.707106781186548,1.),(0.989615747742905,0.699764005998004,
0.989615747742905,0.699764005998004,0.989615747742905,0.699764005998004,
0.989615747742905,0.699764005998004,0.989615747742905),(1.,0.707106781186548,
1.,0.707106781186548,1.,0.707106781186548,1.,0.707106781186548,1.)))
REPRESENTATION_ITEM('')
SURFACE()
);
#16=CYLINDRICAL_SURFACE('',#149,6.75000000000001);
#17=CYLINDRICAL_SURFACE('',#159,5.90000000000001);
#18=FACE_BOUND('',#32,.T.);
#19=FACE_BOUND('',#35,.T.);
#20=PLANE('',#146);
#21=PLANE('',#152);
#22=PLANE('',#156);
#23=FACE_OUTER_BOUND('',#30,.T.);
#24=FACE_OUTER_BOUND('',#31,.T.);
#25=FACE_OUTER_BOUND('',#33,.T.);
#26=FACE_OUTER_BOUND('',#34,.T.);
#27=FACE_OUTER_BOUND('',#36,.T.);
#28=FACE_OUTER_BOUND('',#37,.T.);
#29=FACE_OUTER_BOUND('',#38,.T.);
#30=EDGE_LOOP('',(#84,#85,#86,#87,#88));
#31=EDGE_LOOP('',(#89));
#32=EDGE_LOOP('',(#90,#91));
#33=EDGE_LOOP('',(#92,#93,#94,#95,#96,#97));
#34=EDGE_LOOP('',(#98,#99));
#35=EDGE_LOOP('',(#100,#101));
#36=EDGE_LOOP('',(#102,#103,#104,#105));
#37=EDGE_LOOP('',(#106,#107));
#38=EDGE_LOOP('',(#108,#109,#110,#111,#112,#113));
#39=LINE('',#208,#42);
#40=LINE('',#220,#43);
#41=LINE('',#261,#44);
#42=VECTOR('',#168,6.38602976573381);
#43=VECTOR('',#183,6.75000000000001);
#44=VECTOR('',#200,5.90000000000001);
#45=CIRCLE('',#143,6.75000000000001);
#46=CIRCLE('',#144,6.75000000000001);
#47=CIRCLE('',#145,6.0220595314676);
#48=CIRCLE('',#147,5.90000000000001);
#49=CIRCLE('',#148,5.90000000000001);
#50=CIRCLE('',#150,6.75000000000001);
#51=CIRCLE('',#151,6.75000000000001);
#52=CIRCLE('',#153,8.25000000000001);
#53=CIRCLE('',#154,8.25000000000001);
#54=CIRCLE('',#155,29.);
#55=CIRCLE('',#157,5.90000000000001);
#56=CIRCLE('',#158,5.90000000000001);
#57=VERTEX_POINT('',#203);
#58=VERTEX_POINT('',#204);
#59=VERTEX_POINT('',#207);
#60=VERTEX_POINT('',#211);
#61=VERTEX_POINT('',#212);
#62=VERTEX_POINT('',#216);
#63=VERTEX_POINT('',#217);
#64=VERTEX_POINT('',#222);
#65=VERTEX_POINT('',#223);
#66=VERTEX_POINT('',#253);
#67=VERTEX_POINT('',#256);
#68=VERTEX_POINT('',#257);
#69=EDGE_CURVE('',#57,#58,#45,.T.);
#70=EDGE_CURVE('',#58,#57,#46,.T.);
#71=EDGE_CURVE('',#57,#59,#39,.T.);
#72=EDGE_CURVE('',#59,#59,#47,.T.);
#73=EDGE_CURVE('',#60,#61,#48,.T.);
#74=EDGE_CURVE('',#61,#60,#49,.T.);
#75=EDGE_CURVE('',#62,#63,#50,.T.);
#76=EDGE_CURVE('',#63,#62,#51,.T.);
#77=EDGE_CURVE('',#63,#58,#40,.T.);
#78=EDGE_CURVE('',#64,#65,#52,.T.);
#79=EDGE_CURVE('',#65,#64,#53,.T.);
#80=EDGE_CURVE('',#66,#65,#54,.T.);
#81=EDGE_CURVE('',#67,#68,#55,.T.);
#82=EDGE_CURVE('',#68,#67,#56,.T.);
#83=EDGE_CURVE('',#68,#61,#41,.T.);
#84=ORIENTED_EDGE('',*,*,#69,.T.);
#85=ORIENTED_EDGE('',*,*,#70,.T.);
#86=ORIENTED_EDGE('',*,*,#71,.T.);
#87=ORIENTED_EDGE('',*,*,#72,.T.);
#88=ORIENTED_EDGE('',*,*,#71,.F.);
#89=ORIENTED_EDGE('',*,*,#72,.F.);
#90=ORIENTED_EDGE('',*,*,#73,.T.);
#91=ORIENTED_EDGE('',*,*,#74,.T.);
#92=ORIENTED_EDGE('',*,*,#75,.F.);
#93=ORIENTED_EDGE('',*,*,#76,.F.);
#94=ORIENTED_EDGE('',*,*,#77,.T.);
#95=ORIENTED_EDGE('',*,*,#69,.F.);
#96=ORIENTED_EDGE('',*,*,#70,.F.);
#97=ORIENTED_EDGE('',*,*,#77,.F.);
#98=ORIENTED_EDGE('',*,*,#78,.F.);
#99=ORIENTED_EDGE('',*,*,#79,.F.);
#100=ORIENTED_EDGE('',*,*,#75,.T.);
#101=ORIENTED_EDGE('',*,*,#76,.T.);
#102=ORIENTED_EDGE('',*,*,#80,.T.);
#103=ORIENTED_EDGE('',*,*,#79,.T.);
#104=ORIENTED_EDGE('',*,*,#78,.T.);
#105=ORIENTED_EDGE('',*,*,#80,.F.);
#106=ORIENTED_EDGE('',*,*,#81,.F.);
#107=ORIENTED_EDGE('',*,*,#82,.F.);
#108=ORIENTED_EDGE('',*,*,#81,.T.);
#109=ORIENTED_EDGE('',*,*,#83,.T.);
#110=ORIENTED_EDGE('',*,*,#73,.F.);
#111=ORIENTED_EDGE('',*,*,#74,.F.);
#112=ORIENTED_EDGE('',*,*,#83,.F.);
#113=ORIENTED_EDGE('',*,*,#82,.T.);
#114=CONICAL_SURFACE('',#142,6.38602976573381,0.349065850398866);
#115=ADVANCED_FACE('',(#23),#114,.T.);
#116=ADVANCED_FACE('',(#24,#18),#20,.T.);
#117=ADVANCED_FACE('',(#25),#16,.T.);
#118=ADVANCED_FACE('',(#26,#19),#21,.T.);
#119=ADVANCED_FACE('',(#27),#15,.F.);
#120=ADVANCED_FACE('',(#28),#22,.T.);
#121=ADVANCED_FACE('',(#29),#17,.F.);
#122=CLOSED_SHELL('',(#115,#116,#117,#118,#119,#120,#121));
#123=DERIVED_UNIT_ELEMENT(#125,1.);
#124=DERIVED_UNIT_ELEMENT(#267,3.);
#125=(
MASS_UNIT()
NAMED_UNIT(*)
SI_UNIT($,.GRAM.)
);
#126=DERIVED_UNIT((#123,#124));
#127=MEASURE_REPRESENTATION_ITEM('density measure',
POSITIVE_RATIO_MEASURE(1.06),#126);
#128=PROPERTY_DEFINITION_REPRESENTATION(#133,#130);
#129=PROPERTY_DEFINITION_REPRESENTATION(#134,#131);
#130=REPRESENTATION('material name',(#132),#264);
#131=REPRESENTATION('density',(#127),#264);
#132=DESCRIPTIVE_REPRESENTATION_ITEM('PA6 \X2\010D\X0\ern\X\E1',
'PA6 \X2\010D\X0\ern\X\E1');
#133=PROPERTY_DEFINITION('material property','material name',#274);
#134=PROPERTY_DEFINITION('material property','density of part',#274);
#135=DATE_TIME_ROLE('creation_date');
#136=CC_DESIGN_DATE_AND_TIME_ASSIGNMENT(#137,#135,(#274));
#137=DATE_AND_TIME(#138,#139);
#138=CALENDAR_DATE(2014,3,1);
#139=LOCAL_TIME(0,0,0.,#140);
#140=COORDINATED_UNIVERSAL_TIME_OFFSET(0,0,.BEHIND.);
#141=AXIS2_PLACEMENT_3D('placement',#201,#160,#161);
#142=AXIS2_PLACEMENT_3D('',#202,#162,#163);
#143=AXIS2_PLACEMENT_3D('',#205,#164,#165);
#144=AXIS2_PLACEMENT_3D('',#206,#166,#167);
#145=AXIS2_PLACEMENT_3D('',#209,#169,#170);
#146=AXIS2_PLACEMENT_3D('',#210,#171,#172);
#147=AXIS2_PLACEMENT_3D('',#213,#173,#174);
#148=AXIS2_PLACEMENT_3D('',#214,#175,#176);
#149=AXIS2_PLACEMENT_3D('',#215,#177,#178);
#150=AXIS2_PLACEMENT_3D('',#218,#179,#180);
#151=AXIS2_PLACEMENT_3D('',#219,#181,#182);
#152=AXIS2_PLACEMENT_3D('',#221,#184,#185);
#153=AXIS2_PLACEMENT_3D('',#224,#186,#187);
#154=AXIS2_PLACEMENT_3D('',#225,#188,#189);
#155=AXIS2_PLACEMENT_3D('',#254,#190,#191);
#156=AXIS2_PLACEMENT_3D('',#255,#192,#193);
#157=AXIS2_PLACEMENT_3D('',#258,#194,#195);
#158=AXIS2_PLACEMENT_3D('',#259,#196,#197);
#159=AXIS2_PLACEMENT_3D('',#260,#198,#199);
#160=DIRECTION('axis',(0.,0.,1.));
#161=DIRECTION('refdir',(1.,0.,0.));
#162=DIRECTION('center_axis',(-3.67394039744206E-16,1.,0.));
#163=DIRECTION('ref_axis',(1.,3.47079092230548E-16,0.));
#164=DIRECTION('center_axis',(3.67394039744206E-16,-1.,0.));
#165=DIRECTION('ref_axis',(1.,3.28954970259305E-16,0.));
#166=DIRECTION('center_axis',(3.67394039744206E-16,-1.,0.));
#167=DIRECTION('ref_axis',(1.,3.28954970259305E-16,0.));
#168=DIRECTION('',(0.342020143325669,-0.939692620785908,-4.18853873767699E-17));
#169=DIRECTION('center_axis',(-3.67394039744206E-16,1.,0.));
#170=DIRECTION('ref_axis',(1.,3.67394039744206E-16,0.));
#171=DIRECTION('center_axis',(3.67394039744206E-16,-1.,0.));
#172=DIRECTION('ref_axis',(0.,0.,-1.));
#173=DIRECTION('center_axis',(-3.67394039744206E-16,1.,0.));
#174=DIRECTION('ref_axis',(-1.,-3.28954970259305E-16,0.));
#175=DIRECTION('center_axis',(-3.67394039744206E-16,1.,0.));
#176=DIRECTION('ref_axis',(-1.,-3.28954970259305E-16,0.));
#177=DIRECTION('center_axis',(-3.67394039744206E-16,1.,0.));
#178=DIRECTION('ref_axis',(-1.,-3.28954970259305E-16,0.));
#179=DIRECTION('center_axis',(-3.67394039744206E-16,1.,0.));
#180=DIRECTION('ref_axis',(-1.,-3.28954970259305E-16,0.));
#181=DIRECTION('center_axis',(-3.67394039744206E-16,1.,0.));
#182=DIRECTION('ref_axis',(-1.,-3.28954970259305E-16,0.));
#183=DIRECTION('',(3.67394039744206E-16,-1.,0.));
#184=DIRECTION('center_axis',(3.67394039744206E-16,-1.,0.));
#185=DIRECTION('ref_axis',(0.,0.,-1.));
#186=DIRECTION('center_axis',(-3.67394039744206E-16,1.,0.));
#187=DIRECTION('ref_axis',(-1.,-3.28954970259305E-16,0.));
#188=DIRECTION('center_axis',(-3.67394039744206E-16,1.,0.));
#189=DIRECTION('ref_axis',(-1.,-3.28954970259305E-16,0.));
#190=DIRECTION('center_axis',(-1.,-3.67394039744206E-16,1.22464679914735E-16));
#191=DIRECTION('ref_axis',(-1.22464679914735E-16,0.,-1.));
#192=DIRECTION('center_axis',(3.67394039744206E-16,-1.,0.));
#193=DIRECTION('ref_axis',(0.,0.,-1.));
#194=DIRECTION('center_axis',(-3.67394039744206E-16,1.,0.));
#195=DIRECTION('ref_axis',(-1.,-3.28954970259305E-16,0.));
#196=DIRECTION('center_axis',(-3.67394039744206E-16,1.,0.));
#197=DIRECTION('ref_axis',(-1.,-3.28954970259305E-16,0.));
#198=DIRECTION('center_axis',(-3.67394039744206E-16,1.,0.));
#199=DIRECTION('ref_axis',(-1.,-3.28954970259305E-16,0.));
#200=DIRECTION('',(3.67394039744206E-16,-1.,0.));
#201=CARTESIAN_POINT('',(0.,0.,0.));
#202=CARTESIAN_POINT('Origin',(3.12686979052202E-15,-5.8,0.));
#203=CARTESIAN_POINT('',(-6.75000000000001,-4.8,-8.26636589424465E-16));
#204=CARTESIAN_POINT('',(6.75000000000001,-4.8,-8.26636589424465E-16));
#205=CARTESIAN_POINT('Origin',(2.75947575077781E-15,-4.8,0.));
#206=CARTESIAN_POINT('Origin',(2.75947575077781E-15,-4.8,0.));
#207=CARTESIAN_POINT('',(-6.0220595314676,-6.8,7.37489592948661E-16));
#208=CARTESIAN_POINT('',(-6.3860297657338,-5.8,7.82063091186563E-16));
#209=CARTESIAN_POINT('Origin',(3.49426383026622E-15,-6.8,0.));
#210=CARTESIAN_POINT('Origin',(-6.32500000000001,-6.8,0.));
#211=CARTESIAN_POINT('',(-5.90000000000001,-6.8,0.));
#212=CARTESIAN_POINT('',(5.90000000000002,-6.8,-7.2254161149694E-16));
#213=CARTESIAN_POINT('Origin',(3.49426383026622E-15,-6.8,0.));
#214=CARTESIAN_POINT('Origin',(3.49426383026622E-15,-6.8,0.));
#215=CARTESIAN_POINT('Origin',(2.24512409513592E-15,-3.4,0.));
#216=CARTESIAN_POINT('',(-6.75000000000001,0.,0.));
#217=CARTESIAN_POINT('',(6.75000000000001,4.44089209850063E-15,-8.26636589424465E-16));
#218=CARTESIAN_POINT('Origin',(9.95984360005625E-16,2.22044604925031E-15,
0.));
#219=CARTESIAN_POINT('Origin',(9.95984360005625E-16,2.22044604925031E-15,
0.));
#220=CARTESIAN_POINT('',(6.75000000000001,-3.4,-8.26636589424465E-16));
#221=CARTESIAN_POINT('Origin',(-7.50000000000001,0.,0.));
#222=CARTESIAN_POINT('',(-8.25000000000001,0.,0.));
#223=CARTESIAN_POINT('',(-1.43214316846185E-17,4.44089209850063E-15,-8.25000000000001));
#224=CARTESIAN_POINT('Origin',(9.95984360005624E-16,3.33066907387547E-15,
0.));
#225=CARTESIAN_POINT('Origin',(9.95984360005624E-16,3.33066907387547E-15,
0.));
#226=CARTESIAN_POINT('Ctrl Pts',(9.96012177611951E-16,-4.44089209850063E-15,
-8.25000000000001));
#227=CARTESIAN_POINT('Ctrl Pts',(-8.25000000000001,-7.47189292639033E-15,
-8.25000000000001));
#228=CARTESIAN_POINT('Ctrl Pts',(-8.25000000000001,-7.47189292639033E-15,
0.));
#229=CARTESIAN_POINT('Ctrl Pts',(-8.25000000000001,-7.47189292639033E-15,
8.25000000000001));
#230=CARTESIAN_POINT('Ctrl Pts',(9.96012177611951E-16,-4.44089209850063E-15,
8.25000000000001));
#231=CARTESIAN_POINT('Ctrl Pts',(8.25000000000001,-1.40989127061092E-15,
8.25000000000001));
#232=CARTESIAN_POINT('Ctrl Pts',(8.25000000000001,-1.40989127061092E-15,
0.));
#233=CARTESIAN_POINT('Ctrl Pts',(8.25000000000001,-1.40989127061092E-15,
-8.25000000000001));
#234=CARTESIAN_POINT('Ctrl Pts',(9.96012177611951E-16,-4.44089209850063E-15,
-8.25000000000001));
#235=CARTESIAN_POINT('Ctrl Pts',(5.55454650243013E-16,1.19914173805234,
-4.21214788917126));
#236=CARTESIAN_POINT('Ctrl Pts',(-4.21214788917126,1.19914173805234,-4.21214788917126));
#237=CARTESIAN_POINT('Ctrl Pts',(-4.21214788917126,1.19914173805234,-1.21577157762838E-30));
#238=CARTESIAN_POINT('Ctrl Pts',(-4.21214788917126,1.19914173805234,4.21214788917126));
#239=CARTESIAN_POINT('Ctrl Pts',(5.5545465024301E-16,1.19914173805234,4.21214788917126));
#240=CARTESIAN_POINT('Ctrl Pts',(4.21214788917126,1.19914173805235,4.21214788917126));
#241=CARTESIAN_POINT('Ctrl Pts',(4.21214788917126,1.19914173805234,1.21577157762838E-30));
#242=CARTESIAN_POINT('Ctrl Pts',(4.21214788917126,1.19914173805234,-4.21214788917126));
#243=CARTESIAN_POINT('Ctrl Pts',(5.55454650243013E-16,1.19914173805234,
-4.21214788917126));
#244=CARTESIAN_POINT('Ctrl Pts',(5.55139329918903E-16,1.2,-1.54715650013681E-15));
#245=CARTESIAN_POINT('Ctrl Pts',(-9.92017170217911E-16,1.2,-1.54715650013681E-15));
#246=CARTESIAN_POINT('Ctrl Pts',(-9.92017170217911E-16,1.2,0.));
#247=CARTESIAN_POINT('Ctrl Pts',(-9.92017170217911E-16,1.2,1.54715650013681E-15));
#248=CARTESIAN_POINT('Ctrl Pts',(5.55139329918903E-16,1.2,1.54715650013681E-15));
#249=CARTESIAN_POINT('Ctrl Pts',(2.10229583005572E-15,1.2,1.54715650013681E-15));
#250=CARTESIAN_POINT('Ctrl Pts',(2.10229583005572E-15,1.2,0.));
#251=CARTESIAN_POINT('Ctrl Pts',(2.10229583005572E-15,1.2,-1.54715650013681E-15));
#252=CARTESIAN_POINT('Ctrl Pts',(5.55139329918903E-16,1.2,-1.54715650013681E-15));
#253=CARTESIAN_POINT('',(5.55111512312578E-16,1.2,0.));
#254=CARTESIAN_POINT('Origin',(1.12102899055308E-14,-27.7999993979945,0.00590900334463229));
#255=CARTESIAN_POINT('Origin',(-2.95000000000001,5.55111512312578E-16,0.));
#256=CARTESIAN_POINT('',(-5.90000000000001,-1.11022302462516E-15,0.));
#257=CARTESIAN_POINT('',(5.90000000000001,3.33066907387547E-15,-7.2254161149694E-16));
#258=CARTESIAN_POINT('Origin',(9.95984360005625E-16,1.11022302462516E-15,
0.));
#259=CARTESIAN_POINT('Origin',(9.95984360005625E-16,1.11022302462516E-15,
0.));
#260=CARTESIAN_POINT('Origin',(2.24512409513592E-15,-3.4,0.));
#261=CARTESIAN_POINT('',(5.90000000000002,-3.4,-7.2254161149694E-16));
#262=UNCERTAINTY_MEASURE_WITH_UNIT(LENGTH_MEASURE(0.01),#266,
'DISTANCE_ACCURACY_VALUE',
'Maximum model space distance between geometric entities at asserted c
onnectivities');
#263=UNCERTAINTY_MEASURE_WITH_UNIT(LENGTH_MEASURE(0.01),#266,
'DISTANCE_ACCURACY_VALUE',
'Maximum model space distance between geometric entities at asserted c
onnectivities');
#264=(
GEOMETRIC_REPRESENTATION_CONTEXT(3)
GLOBAL_UNCERTAINTY_ASSIGNED_CONTEXT((#262))
GLOBAL_UNIT_ASSIGNED_CONTEXT((#266,#268,#269))
REPRESENTATION_CONTEXT('','3D')
);
#265=(
GEOMETRIC_REPRESENTATION_CONTEXT(3)
GLOBAL_UNCERTAINTY_ASSIGNED_CONTEXT((#263))
GLOBAL_UNIT_ASSIGNED_CONTEXT((#266,#268,#269))
REPRESENTATION_CONTEXT('','3D')
);
#266=(
LENGTH_UNIT()
NAMED_UNIT(*)
SI_UNIT(.MILLI.,.METRE.)
);
#267=(
LENGTH_UNIT()
NAMED_UNIT(*)
SI_UNIT(.CENTI.,.METRE.)
);
#268=(
NAMED_UNIT(*)
PLANE_ANGLE_UNIT()
SI_UNIT($,.RADIAN.)
);
#269=(
NAMED_UNIT(*)
SI_UNIT($,.STERADIAN.)
SOLID_ANGLE_UNIT()
);
#270=SHAPE_DEFINITION_REPRESENTATION(#271,#272);
#271=PRODUCT_DEFINITION_SHAPE('',$,#274);
#272=SHAPE_REPRESENTATION('',(#141),#264);
#273=DESIGN_CONTEXT('part definition',#278,'design');
#274=PRODUCT_DEFINITION('220013.s','220013.s',#275,#273);
#275=PRODUCT_DEFINITION_FORMATION('',$,#280);
#276=PRODUCT_RELATED_PRODUCT_CATEGORY('220013.s','220013.s',(#280));
#277=APPLICATION_PROTOCOL_DEFINITION('international standard',
'ap203_configuration_controlled_3d_design_of_mechanical_parts_and_asse
mblies_mim_lf',2004,#278);
#278=APPLICATION_CONTEXT(
'Configuration Controlled 3D Design of Mechanical Parts and Assemblies');
#279=MECHANICAL_CONTEXT('part definition',#278,'mechanical');
#280=PRODUCT('220013.s','220013.s',
'Korek za\X2\015B\X0\lepiaj\X2\0105\X0\cy D=13,5mm Szary',(#279));
#281=PRESENTATION_STYLE_ASSIGNMENT((#282));
#282=SURFACE_STYLE_USAGE(.BOTH.,#285);
#283=SURFACE_STYLE_RENDERING_WITH_PROPERTIES($,#289,(#284));
#284=SURFACE_STYLE_TRANSPARENT(0.);
#285=SURFACE_SIDE_STYLE('',(#286,#283));
#286=SURFACE_STYLE_FILL_AREA(#287);
#287=FILL_AREA_STYLE('',(#288));
#288=FILL_AREA_STYLE_COLOUR('',#289);
#289=COLOUR_RGB('',0.6,0.6,0.6);
ENDSEC;
END-ISO-10303-21;
