ISO-10303-21;
HEADER;
/****************************************************************
 * Generated by software with PDE/Lib inside                    *
 * PDElib Version v51a, created Mon 03/22/2010                  *
 * International Technegroup Inc. (www.iti-oh.com)              *
 ****************************************************************/
FILE_DESCRIPTION((''),'2;1');
FILE_NAME('D:\\P\X2\0159\X0\evod katalogu\\P\X2\0159\X0\evod do STEP\\Modul 45\\Spojovac\S\m prvky\\210815\\210815.ipt.stp','2010-09-05T12:24:28',(''),(''),'Autodesk Inventor 2010','Autodesk Inventor 2010','');
FILE_SCHEMA(('AUTOMOTIVE_DESIGN { 1 0 10303 214 1 1 1 1 }'));
ENDSEC;
DATA;
#5=APPLICATION_CONTEXT('automotive design');
#6=APPLICATION_PROTOCOL_DEFINITION('International Standard','automotive_design',2001,#5);
#7=PRODUCT_CONTEXT('',#5,'mechanical');
#8=PRODUCT('210815','210815',$,(#7));
#9=PRODUCT_RELATED_PRODUCT_CATEGORY('part',$,(#8));
#10=PRODUCT_DEFINITION_FORMATION('',$,#8);
#11=PRODUCT_DEFINITION_CONTEXT('part definition',#5,'design');
#12=PRODUCT_DEFINITION('',$,#10,#11);
#18=(NAMED_UNIT(*)PLANE_ANGLE_UNIT()SI_UNIT($,.RADIAN.));
#19=DIMENSIONAL_EXPONENTS(0.0,0.0,0.0,0.0,0.0,0.0,0.0);
#20=PLANE_ANGLE_MEASURE_WITH_UNIT(PLANE_ANGLE_MEASURE(0.017453292500000),#18);
#24=(CONVERSION_BASED_UNIT('DEGREE',#20)NAMED_UNIT(#19)PLANE_ANGLE_UNIT());
#28=(NAMED_UNIT(*)SI_UNIT($,.STERADIAN.)SOLID_ANGLE_UNIT());
#32=(LENGTH_UNIT()NAMED_UNIT(*)SI_UNIT(.MILLI.,.METRE.));
#34=UNCERTAINTY_MEASURE_WITH_UNIT(LENGTH_MEASURE(0.010000000000000),#32,'DISTANCE_ACCURACY_VALUE','');
#36=(GEOMETRIC_REPRESENTATION_CONTEXT(3)GLOBAL_UNCERTAINTY_ASSIGNED_CONTEXT((#34))GLOBAL_UNIT_ASSIGNED_CONTEXT((#24,#28,#32))REPRESENTATION_CONTEXT('None','None'));
#37=AXIS2_PLACEMENT_3D('',#38,#39,#40);
#38=CARTESIAN_POINT('',(0.0,0.0,0.0));
#39=DIRECTION('',(0.0,0.0,1.0));
#40=DIRECTION('',(1.0,0.0,0.0));
#41=SHAPE_REPRESENTATION('',(#37),#36);
#42=PRODUCT_DEFINITION_SHAPE('','',#12);
#43=SHAPE_DEFINITION_REPRESENTATION(#42,#41);
#49=(NAMED_UNIT(*)PLANE_ANGLE_UNIT()SI_UNIT($,.RADIAN.));
#50=DIMENSIONAL_EXPONENTS(0.0,0.0,0.0,0.0,0.0,0.0,0.0);
#51=PLANE_ANGLE_MEASURE_WITH_UNIT(PLANE_ANGLE_MEASURE(0.017453292500000),#49);
#55=(CONVERSION_BASED_UNIT('DEGREE',#51)NAMED_UNIT(#50)PLANE_ANGLE_UNIT());
#59=(NAMED_UNIT(*)SI_UNIT($,.STERADIAN.)SOLID_ANGLE_UNIT());
#63=(LENGTH_UNIT()NAMED_UNIT(*)SI_UNIT(.MILLI.,.METRE.));
#65=UNCERTAINTY_MEASURE_WITH_UNIT(LENGTH_MEASURE(0.000001000000000),#63,'DISTANCE_ACCURACY_VALUE','');
#67=(GEOMETRIC_REPRESENTATION_CONTEXT(3)GLOBAL_UNCERTAINTY_ASSIGNED_CONTEXT((#65))GLOBAL_UNIT_ASSIGNED_CONTEXT((#55,#59,#63))REPRESENTATION_CONTEXT('','3D'));
#68=CARTESIAN_POINT('',(4.250000000000000,-4.0,-5.204749E-016));
#69=CARTESIAN_POINT('',(4.250000000000000,-14.000000000000007,-5.204749E-016));
#70=CARTESIAN_POINT('',(4.249999999999998,-4.0,-4.250000000000000));
#71=CARTESIAN_POINT('',(4.249999999999998,-14.000000000000007,-4.250000000000000));
#72=CARTESIAN_POINT('',(-5.204749E-016,-4.0,-4.250000000000000));
#73=CARTESIAN_POINT('',(-5.204749E-016,-14.000000000000007,-4.250000000000000));
#74=CARTESIAN_POINT('',(-4.250000000000000,-4.0,-4.249999999999998));
#75=CARTESIAN_POINT('',(-4.250000000000000,-14.000000000000007,-4.249999999999998));
#76=CARTESIAN_POINT('',(-4.250000000000000,-4.0,5.204749E-016));
#77=CARTESIAN_POINT('',(-4.250000000000000,-14.000000000000007,5.204749E-016));
#78=CARTESIAN_POINT('',(-4.249999999999998,-4.0,4.250000000000000));
#79=CARTESIAN_POINT('',(-4.249999999999998,-14.000000000000007,4.250000000000000));
#80=CARTESIAN_POINT('',(5.204749E-016,-4.0,4.250000000000000));
#81=CARTESIAN_POINT('',(5.204749E-016,-14.000000000000007,4.250000000000000));
#82=CARTESIAN_POINT('',(4.250000000000000,-4.0,4.249999999999998));
#83=CARTESIAN_POINT('',(4.250000000000000,-14.000000000000007,4.249999999999998));
#84=CARTESIAN_POINT('',(4.250000000000000,-4.0,-5.204749E-016));
#85=CARTESIAN_POINT('',(4.250000000000000,-14.000000000000007,-5.204749E-016));
#93=(BOUNDED_SURFACE()B_SPLINE_SURFACE(1,2,((#68,#70,#72,#74,#76,#78,#80,#82,#84),(#69,#71,#73,#75,#77,#79,#81,#83,#85)),.UNSPECIFIED.,.F.,.T.,.U.)B_SPLINE_SURFACE_WITH_KNOTS((2,2),(3,2,2,2,3),(-12.008209417960929,-9.655268241490338),(0.0,6.675884388878311,13.351768777756622,20.027653166634931,26.703537555513243),.UNSPECIFIED.)GEOMETRIC_REPRESENTATION_ITEM()RATIONAL_B_SPLINE_SURFACE(((1.0,0.707106781186548,1.0,0.707106781186548,1.0,0.707106781186548,1.0,0.707106781186548,1.0),(1.0,0.707106781186548,1.0,0.707106781186548,1.0,0.707106781186548,1.0,0.707106781186548,1.0)))REPRESENTATION_ITEM('')SURFACE());
#94=CARTESIAN_POINT('',(3.700000000000001,-13.999999999999995,2.091052366632648));
#95=VERTEX_POINT('',#94);
#96=CARTESIAN_POINT('',(3.700000000000001,-13.999999999999995,-2.091052366632648));
#97=VERTEX_POINT('',#96);
#98=CARTESIAN_POINT('',(0.0,-17.700000000000010,0.0));
#99=DIRECTION('',(-0.707106781186548,0.707106781186547,0.0));
#100=DIRECTION('',(-0.707106781186547,-0.707106781186548,0.0));
#101=AXIS2_PLACEMENT_3D('',#98,#99,#100);
#102=ELLIPSE('',#101,6.010407640085655,4.249999999999999);
#103=EDGE_CURVE('',#95,#97,#102,.T.);
#104=ORIENTED_EDGE('',*,*,#103,.F.);
#105=CARTESIAN_POINT('',(-3.699999999999992,-13.999999999999995,2.091052366632663));
#106=VERTEX_POINT('',#105);
#107=CARTESIAN_POINT('',(0.0,-13.999999999999995,0.0));
#108=DIRECTION('',(0.0,1.0,0.0));
#109=DIRECTION('',(-1.0,0.0,0.0));
#110=AXIS2_PLACEMENT_3D('',#107,#108,#109);
#111=CIRCLE('',#110,4.250000000000000);
#112=EDGE_CURVE('',#106,#95,#111,.T.);
#113=ORIENTED_EDGE('',*,*,#112,.F.);
#114=CARTESIAN_POINT('',(-3.699999999999992,-13.999999999999995,-2.091052366632663));
#115=VERTEX_POINT('',#114);
#116=CARTESIAN_POINT('',(0.0,-17.699999999999978,0.0));
#117=DIRECTION('',(0.707106781186547,0.707106781186548,0.0));
#118=DIRECTION('',(-0.707106781186548,0.707106781186547,0.0));
#119=AXIS2_PLACEMENT_3D('',#116,#117,#118);
#120=ELLIPSE('',#119,6.010407640085650,4.250000000000001);
#121=EDGE_CURVE('',#115,#106,#120,.T.);
#122=ORIENTED_EDGE('',*,*,#121,.F.);
#123=CARTESIAN_POINT('',(0.0,-13.999999999999995,0.0));
#124=DIRECTION('',(0.0,1.0,0.0));
#125=DIRECTION('',(-1.0,0.0,0.0));
#126=AXIS2_PLACEMENT_3D('',#123,#124,#125);
#127=CIRCLE('',#126,4.250000000000000);
#128=EDGE_CURVE('',#97,#115,#127,.T.);
#129=ORIENTED_EDGE('',*,*,#128,.F.);
#130=EDGE_LOOP('',(#104,#113,#122,#129));
#131=FACE_OUTER_BOUND('',#130,.T.);
#132=CARTESIAN_POINT('',(-4.250000000000000,-4.0,0.0));
#133=VERTEX_POINT('',#132);
#134=CARTESIAN_POINT('',(0.0,-4.000000000000004,0.0));
#135=DIRECTION('',(0.0,-1.0,0.0));
#136=DIRECTION('',(-1.0,0.0,0.0));
#137=AXIS2_PLACEMENT_3D('',#134,#135,#136);
#138=CIRCLE('',#137,4.250000000000000);
#139=EDGE_CURVE('',#133,#133,#138,.T.);
#140=ORIENTED_EDGE('',*,*,#139,.F.);
#141=EDGE_LOOP('',(#140));
#142=FACE_BOUND('',#141,.T.);
#143=ADVANCED_FACE('',(#131,#142),#93,.F.);
#144=CARTESIAN_POINT('',(-3.699999999999992,-14.0,0.0));
#145=DIRECTION('',(-0.707106781186547,-0.707106781186548,0.0));
#146=DIRECTION('',(0.0,0.0,1.0));
#147=AXIS2_PLACEMENT_3D('',#144,#145,#146);
#148=PLANE('',#147);
#149=ORIENTED_EDGE('',*,*,#121,.T.);
#150=CARTESIAN_POINT('',(-3.699999999999992,-14.0,22.500000000000000));
#151=VERTEX_POINT('',#150);
#152=CARTESIAN_POINT('',(-3.699999999999992,-14.0,22.500000000000000));
#153=DIRECTION('',(0.0,0.0,-1.0));
#154=VECTOR('',#153,20.408947633367337);
#155=LINE('',#152,#154);
#156=EDGE_CURVE('',#151,#106,#155,.T.);
#157=ORIENTED_EDGE('',*,*,#156,.F.);
#158=CARTESIAN_POINT('',(-6.699999999999998,-10.999999999999996,22.500000000000000));
#159=VERTEX_POINT('',#158);
#160=CARTESIAN_POINT('',(-3.699999999999992,-14.0,22.500000000000000));
#161=DIRECTION('',(-0.707106781186548,0.707106781186547,0.0));
#162=VECTOR('',#161,4.242640687119291);
#163=LINE('',#160,#162);
#164=EDGE_CURVE('',#151,#159,#163,.T.);
#165=ORIENTED_EDGE('',*,*,#164,.T.);
#166=CARTESIAN_POINT('',(-6.699999999999998,-10.999999999999996,-22.500000000000000));
#167=VERTEX_POINT('',#166);
#168=CARTESIAN_POINT('',(-6.699999999999998,-10.999999999999996,22.500000000000000));
#169=DIRECTION('',(0.0,0.0,-1.0));
#170=VECTOR('',#169,45.0);
#171=LINE('',#168,#170);
#172=EDGE_CURVE('',#159,#167,#171,.T.);
#173=ORIENTED_EDGE('',*,*,#172,.T.);
#174=CARTESIAN_POINT('',(-3.699999999999992,-14.0,-22.500000000000000));
#175=VERTEX_POINT('',#174);
#176=CARTESIAN_POINT('',(-6.699999999999998,-10.999999999999996,-22.500000000000000));
#177=DIRECTION('',(0.707106781186548,-0.707106781186547,0.0));
#178=VECTOR('',#177,4.242640687119291);
#179=LINE('',#176,#178);
#180=EDGE_CURVE('',#167,#175,#179,.T.);
#181=ORIENTED_EDGE('',*,*,#180,.T.);
#182=CARTESIAN_POINT('',(-3.699999999999992,-14.0,-2.091052366632663));
#183=DIRECTION('',(0.0,0.0,-1.0));
#184=VECTOR('',#183,20.408947633367337);
#185=LINE('',#182,#184);
#186=EDGE_CURVE('',#115,#175,#185,.T.);
#187=ORIENTED_EDGE('',*,*,#186,.F.);
#188=EDGE_LOOP('',(#149,#157,#165,#173,#181,#187));
#189=FACE_OUTER_BOUND('',#188,.T.);
#190=ADVANCED_FACE('',(#189),#148,.T.);
#191=CARTESIAN_POINT('',(3.700000000000001,-14.0,0.0));
#192=DIRECTION('',(0.0,-1.0,0.0));
#193=DIRECTION('',(0.0,0.0,-1.0));
#194=AXIS2_PLACEMENT_3D('',#191,#192,#193);
#195=PLANE('',#194);
#196=ORIENTED_EDGE('',*,*,#112,.T.);
#197=CARTESIAN_POINT('',(3.700000000000001,-14.0,22.500000000000000));
#198=VERTEX_POINT('',#197);
#199=CARTESIAN_POINT('',(3.700000000000001,-14.0,22.500000000000000));
#200=DIRECTION('',(0.0,0.0,-1.0));
#201=VECTOR('',#200,20.408947633367351);
#202=LINE('',#199,#201);
#203=EDGE_CURVE('',#198,#95,#202,.T.);
#204=ORIENTED_EDGE('',*,*,#203,.F.);
#205=CARTESIAN_POINT('',(3.700000000000001,-14.0,22.500000000000000));
#206=DIRECTION('',(-1.0,0.0,0.0));
#207=VECTOR('',#206,7.399999999999993);
#208=LINE('',#205,#207);
#209=EDGE_CURVE('',#198,#151,#208,.T.);
#210=ORIENTED_EDGE('',*,*,#209,.T.);
#211=ORIENTED_EDGE('',*,*,#156,.T.);
#212=EDGE_LOOP('',(#196,#204,#210,#211));
#213=FACE_OUTER_BOUND('',#212,.T.);
#214=ADVANCED_FACE('',(#213),#195,.T.);
#215=CARTESIAN_POINT('',(3.999999999999999,6.000000000000001,-7.999999999999998));
#216=DIRECTION('',(0.0,0.0,-1.0));
#217=DIRECTION('',(-1.0,0.0,0.0));
#218=AXIS2_PLACEMENT_3D('',#215,#216,#217);
#219=PLANE('',#218);
#220=CARTESIAN_POINT('',(-4.000000000000004,-3.999999999999999,-7.999999999999998));
#221=VERTEX_POINT('',#220);
#222=CARTESIAN_POINT('',(3.999999999999999,-3.999999999999999,-7.999999999999998));
#223=VERTEX_POINT('',#222);
#224=CARTESIAN_POINT('',(-4.000000000000005,-3.999999999999999,-7.999999999999998));
#225=DIRECTION('',(1.0,0.0,0.0));
#226=VECTOR('',#225,8.000000000000004);
#227=LINE('',#224,#226);
#228=EDGE_CURVE('',#221,#223,#227,.T.);
#229=ORIENTED_EDGE('',*,*,#228,.T.);
#230=CARTESIAN_POINT('',(3.999999999999999,6.000000000000001,-7.999999999999998));
#231=VERTEX_POINT('',#230);
#232=CARTESIAN_POINT('',(3.999999999999999,6.000000000000001,-7.999999999999998));
#233=DIRECTION('',(0.0,-1.0,0.0));
#234=VECTOR('',#233,10.0);
#235=LINE('',#232,#234);
#236=EDGE_CURVE('',#231,#223,#235,.T.);
#237=ORIENTED_EDGE('',*,*,#236,.F.);
#238=CARTESIAN_POINT('',(-4.000000000000004,6.000000000000001,-7.999999999999998));
#239=VERTEX_POINT('',#238);
#240=CARTESIAN_POINT('',(-4.000000000000004,6.000000000000001,-7.999999999999998));
#241=DIRECTION('',(1.0,0.0,0.0));
#242=VECTOR('',#241,8.000000000000004);
#243=LINE('',#240,#242);
#244=EDGE_CURVE('',#239,#231,#243,.T.);
#245=ORIENTED_EDGE('',*,*,#244,.F.);
#246=CARTESIAN_POINT('',(-3.999999999999999,-4.000000000000000,-7.999999999999998));
#247=DIRECTION('',(0.0,1.0,0.0));
#248=VECTOR('',#247,10.0);
#249=LINE('',#246,#248);
#250=EDGE_CURVE('',#221,#239,#249,.T.);
#251=ORIENTED_EDGE('',*,*,#250,.F.);
#252=EDGE_LOOP('',(#229,#237,#245,#251));
#253=FACE_OUTER_BOUND('',#252,.T.);
#254=ADVANCED_FACE('',(#253),#219,.F.);
#255=CARTESIAN_POINT('',(-4.000000000000002,6.000000000000001,8.000000000000004));
#256=DIRECTION('',(0.0,0.0,1.0));
#257=DIRECTION('',(1.0,0.0,0.0));
#258=AXIS2_PLACEMENT_3D('',#255,#256,#257);
#259=PLANE('',#258);
#260=CARTESIAN_POINT('',(4.0,-3.999999999999999,8.000000000000004));
#261=VERTEX_POINT('',#260);
#262=CARTESIAN_POINT('',(-4.000000000000002,-3.999999999999999,8.000000000000004));
#263=VERTEX_POINT('',#262);
#264=CARTESIAN_POINT('',(4.0,-3.999999999999999,8.000000000000004));
#265=DIRECTION('',(-1.0,0.0,0.0));
#266=VECTOR('',#265,8.000000000000002);
#267=LINE('',#264,#266);
#268=EDGE_CURVE('',#261,#263,#267,.T.);
#269=ORIENTED_EDGE('',*,*,#268,.T.);
#270=CARTESIAN_POINT('',(-4.000000000000002,6.000000000000001,8.000000000000004));
#271=VERTEX_POINT('',#270);
#272=CARTESIAN_POINT('',(-4.000000000000001,6.0,8.000000000000004));
#273=DIRECTION('',(0.0,-1.0,0.0));
#274=VECTOR('',#273,9.999999999999998);
#275=LINE('',#272,#274);
#276=EDGE_CURVE('',#271,#263,#275,.T.);
#277=ORIENTED_EDGE('',*,*,#276,.F.);
#278=CARTESIAN_POINT('',(4.0,6.000000000000001,8.000000000000004));
#279=VERTEX_POINT('',#278);
#280=CARTESIAN_POINT('',(4.0,6.000000000000001,8.000000000000004));
#281=DIRECTION('',(-1.0,0.0,0.0));
#282=VECTOR('',#281,8.000000000000002);
#283=LINE('',#280,#282);
#284=EDGE_CURVE('',#279,#271,#283,.T.);
#285=ORIENTED_EDGE('',*,*,#284,.F.);
#286=CARTESIAN_POINT('',(4.000000000000000,-3.999999999999999,8.000000000000004));
#287=DIRECTION('',(0.0,1.0,0.0));
#288=VECTOR('',#287,10.0);
#289=LINE('',#286,#288);
#290=EDGE_CURVE('',#261,#279,#289,.T.);
#291=ORIENTED_EDGE('',*,*,#290,.F.);
#292=EDGE_LOOP('',(#269,#277,#285,#291));
#293=FACE_OUTER_BOUND('',#292,.T.);
#294=ADVANCED_FACE('',(#293),#259,.F.);
#295=CARTESIAN_POINT('',(-4.000000000000000,-4.0,0.0));
#296=DIRECTION('',(-1.0,0.0,0.0));
#297=DIRECTION('',(0.0,0.0,1.0));
#298=AXIS2_PLACEMENT_3D('',#295,#296,#297);
#299=PLANE('',#298);
#300=ORIENTED_EDGE('',*,*,#276,.T.);
#301=CARTESIAN_POINT('',(-4.000000000000000,-4.0,22.500000000000000));
#302=VERTEX_POINT('',#301);
#303=CARTESIAN_POINT('',(-4.000000000000000,-4.0,22.500000000000000));
#304=DIRECTION('',(0.0,0.0,-1.0));
#305=VECTOR('',#304,14.499999999999996);
#306=LINE('',#303,#305);
#307=EDGE_CURVE('',#302,#263,#306,.T.);
#308=ORIENTED_EDGE('',*,*,#307,.F.);
#309=CARTESIAN_POINT('',(-4.000000000000002,6.000000000000001,22.500000000000000));
#310=VERTEX_POINT('',#309);
#311=CARTESIAN_POINT('',(-4.000000000000000,-4.0,22.500000000000000));
#312=DIRECTION('',(0.0,1.0,0.0));
#313=VECTOR('',#312,10.0);
#314=LINE('',#311,#313);
#315=EDGE_CURVE('',#302,#310,#314,.T.);
#316=ORIENTED_EDGE('',*,*,#315,.T.);
#317=CARTESIAN_POINT('',(-4.000000000000002,6.000000000000001,8.000000000000004));
#318=DIRECTION('',(0.0,0.0,1.0));
#319=VECTOR('',#318,14.499999999999996);
#320=LINE('',#317,#319);
#321=EDGE_CURVE('',#271,#310,#320,.T.);
#322=ORIENTED_EDGE('',*,*,#321,.F.);
#323=EDGE_LOOP('',(#300,#308,#316,#322));
#324=FACE_OUTER_BOUND('',#323,.T.);
#325=ADVANCED_FACE('',(#324),#299,.T.);
#326=CARTESIAN_POINT('',(-4.000000000000000,-4.0,0.0));
#327=DIRECTION('',(-1.0,0.0,0.0));
#328=DIRECTION('',(0.0,0.0,1.0));
#329=AXIS2_PLACEMENT_3D('',#326,#327,#328);
#330=PLANE('',#329);
#331=ORIENTED_EDGE('',*,*,#250,.T.);
#332=CARTESIAN_POINT('',(-4.000000000000002,6.000000000000001,-22.500000000000000));
#333=VERTEX_POINT('',#332);
#334=CARTESIAN_POINT('',(-4.000000000000002,6.000000000000001,-22.500000000000000));
#335=DIRECTION('',(0.0,0.0,1.0));
#336=VECTOR('',#335,14.500000000000002);
#337=LINE('',#334,#336);
#338=EDGE_CURVE('',#333,#239,#337,.T.);
#339=ORIENTED_EDGE('',*,*,#338,.F.);
#340=CARTESIAN_POINT('',(-4.000000000000000,-4.0,-22.500000000000000));
#341=VERTEX_POINT('',#340);
#342=CARTESIAN_POINT('',(-4.000000000000001,6.0,-22.500000000000000));
#343=DIRECTION('',(0.0,-1.0,0.0));
#344=VECTOR('',#343,10.0);
#345=LINE('',#342,#344);
#346=EDGE_CURVE('',#333,#341,#345,.T.);
#347=ORIENTED_EDGE('',*,*,#346,.T.);
#348=CARTESIAN_POINT('',(-4.000000000000000,-4.0,-7.999999999999998));
#349=DIRECTION('',(0.0,0.0,-1.0));
#350=VECTOR('',#349,14.500000000000002);
#351=LINE('',#348,#350);
#352=EDGE_CURVE('',#221,#341,#351,.T.);
#353=ORIENTED_EDGE('',*,*,#352,.F.);
#354=EDGE_LOOP('',(#331,#339,#347,#353));
#355=FACE_OUTER_BOUND('',#354,.T.);
#356=ADVANCED_FACE('',(#355),#330,.T.);
#357=CARTESIAN_POINT('',(-4.000000000000002,6.000000000000001,0.0));
#358=DIRECTION('',(0.0,1.0,0.0));
#359=DIRECTION('',(0.0,0.0,1.0));
#360=AXIS2_PLACEMENT_3D('',#357,#358,#359);
#361=PLANE('',#360);
#362=ORIENTED_EDGE('',*,*,#284,.T.);
#363=ORIENTED_EDGE('',*,*,#321,.T.);
#364=CARTESIAN_POINT('',(3.999999999999999,6.000000000000001,22.500000000000000));
#365=VERTEX_POINT('',#364);
#366=CARTESIAN_POINT('',(-4.000000000000002,6.000000000000001,22.500000000000000));
#367=DIRECTION('',(1.0,0.0,0.0));
#368=VECTOR('',#367,8.0);
#369=LINE('',#366,#368);
#370=EDGE_CURVE('',#310,#365,#369,.T.);
#371=ORIENTED_EDGE('',*,*,#370,.T.);
#372=CARTESIAN_POINT('',(3.999999999999999,6.000000000000001,22.500000000000000));
#373=DIRECTION('',(0.0,0.0,-1.0));
#374=VECTOR('',#373,14.499999999999996);
#375=LINE('',#372,#374);
#376=EDGE_CURVE('',#365,#279,#375,.T.);
#377=ORIENTED_EDGE('',*,*,#376,.T.);
#378=EDGE_LOOP('',(#362,#363,#371,#377));
#379=FACE_OUTER_BOUND('',#378,.T.);
#380=ADVANCED_FACE('',(#379),#361,.T.);
#381=CARTESIAN_POINT('',(-4.000000000000002,6.000000000000001,0.0));
#382=DIRECTION('',(0.0,1.0,0.0));
#383=DIRECTION('',(0.0,0.0,1.0));
#384=AXIS2_PLACEMENT_3D('',#381,#382,#383);
#385=PLANE('',#384);
#386=ORIENTED_EDGE('',*,*,#244,.T.);
#387=CARTESIAN_POINT('',(3.999999999999999,6.000000000000001,-22.500000000000000));
#388=VERTEX_POINT('',#387);
#389=CARTESIAN_POINT('',(3.999999999999999,6.000000000000001,-7.999999999999998));
#390=DIRECTION('',(0.0,0.0,-1.0));
#391=VECTOR('',#390,14.500000000000002);
#392=LINE('',#389,#391);
#393=EDGE_CURVE('',#231,#388,#392,.T.);
#394=ORIENTED_EDGE('',*,*,#393,.T.);
#395=CARTESIAN_POINT('',(3.999999999999998,6.000000000000001,-22.500000000000000));
#396=DIRECTION('',(-1.0,0.0,0.0));
#397=VECTOR('',#396,8.0);
#398=LINE('',#395,#397);
#399=EDGE_CURVE('',#388,#333,#398,.T.);
#400=ORIENTED_EDGE('',*,*,#399,.T.);
#401=ORIENTED_EDGE('',*,*,#338,.T.);
#402=EDGE_LOOP('',(#386,#394,#400,#401));
#403=FACE_OUTER_BOUND('',#402,.T.);
#404=ADVANCED_FACE('',(#403),#385,.T.);
#405=CARTESIAN_POINT('',(3.999999999999999,6.000000000000001,0.0));
#406=DIRECTION('',(1.0,0.0,0.0));
#407=DIRECTION('',(0.0,0.0,-1.0));
#408=AXIS2_PLACEMENT_3D('',#405,#406,#407);
#409=PLANE('',#408);
#410=ORIENTED_EDGE('',*,*,#290,.T.);
#411=ORIENTED_EDGE('',*,*,#376,.F.);
#412=CARTESIAN_POINT('',(4.000000000000000,-4.0,22.500000000000000));
#413=VERTEX_POINT('',#412);
#414=CARTESIAN_POINT('',(3.999999999999999,6.000000000000001,22.500000000000000));
#415=DIRECTION('',(0.0,-1.0,0.0));
#416=VECTOR('',#415,10.0);
#417=LINE('',#414,#416);
#418=EDGE_CURVE('',#365,#413,#417,.T.);
#419=ORIENTED_EDGE('',*,*,#418,.T.);
#420=CARTESIAN_POINT('',(4.000000000000000,-4.0,22.500000000000000));
#421=DIRECTION('',(0.0,0.0,-1.0));
#422=VECTOR('',#421,14.499999999999996);
#423=LINE('',#420,#422);
#424=EDGE_CURVE('',#413,#261,#423,.T.);
#425=ORIENTED_EDGE('',*,*,#424,.T.);
#426=EDGE_LOOP('',(#410,#411,#419,#425));
#427=FACE_OUTER_BOUND('',#426,.T.);
#428=ADVANCED_FACE('',(#427),#409,.T.);
#429=CARTESIAN_POINT('',(3.999999999999999,6.000000000000001,0.0));
#430=DIRECTION('',(1.0,0.0,0.0));
#431=DIRECTION('',(0.0,0.0,-1.0));
#432=AXIS2_PLACEMENT_3D('',#429,#430,#431);
#433=PLANE('',#432);
#434=ORIENTED_EDGE('',*,*,#236,.T.);
#435=CARTESIAN_POINT('',(4.000000000000000,-4.0,-22.500000000000000));
#436=VERTEX_POINT('',#435);
#437=CARTESIAN_POINT('',(4.000000000000000,-4.0,-7.999999999999998));
#438=DIRECTION('',(0.0,0.0,-1.0));
#439=VECTOR('',#438,14.500000000000002);
#440=LINE('',#437,#439);
#441=EDGE_CURVE('',#223,#436,#440,.T.);
#442=ORIENTED_EDGE('',*,*,#441,.T.);
#443=CARTESIAN_POINT('',(4.000000000000000,-3.999999999999999,-22.500000000000000));
#444=DIRECTION('',(0.0,1.0,0.0));
#445=VECTOR('',#444,10.0);
#446=LINE('',#443,#445);
#447=EDGE_CURVE('',#436,#388,#446,.T.);
#448=ORIENTED_EDGE('',*,*,#447,.T.);
#449=ORIENTED_EDGE('',*,*,#393,.F.);
#450=EDGE_LOOP('',(#434,#442,#448,#449));
#451=FACE_OUTER_BOUND('',#450,.T.);
#452=ADVANCED_FACE('',(#451),#433,.T.);
#453=CARTESIAN_POINT('',(6.938894E-016,-4.238995408609886,-22.500000000000000));
#454=DIRECTION('',(0.0,0.0,1.0));
#455=DIRECTION('',(1.0,0.0,0.0));
#456=AXIS2_PLACEMENT_3D('',#453,#454,#455);
#457=PLANE('',#456);
#458=ORIENTED_EDGE('',*,*,#346,.F.);
#459=ORIENTED_EDGE('',*,*,#399,.F.);
#460=ORIENTED_EDGE('',*,*,#447,.F.);
#461=CARTESIAN_POINT('',(6.700000000000000,-4.0,-22.500000000000000));
#462=VERTEX_POINT('',#461);
#463=CARTESIAN_POINT('',(6.700000000000000,-4.0,-22.500000000000000));
#464=DIRECTION('',(-1.0,0.0,0.0));
#465=VECTOR('',#464,2.700000000000001);
#466=LINE('',#463,#465);
#467=EDGE_CURVE('',#462,#436,#466,.T.);
#468=ORIENTED_EDGE('',*,*,#467,.F.);
#469=CARTESIAN_POINT('',(6.700000000000001,-10.999999999999996,-22.500000000000000));
#470=VERTEX_POINT('',#469);
#471=CARTESIAN_POINT('',(6.700000000000001,-10.999999999999996,-22.500000000000000));
#472=DIRECTION('',(0.0,1.0,0.0));
#473=VECTOR('',#472,6.999999999999996);
#474=LINE('',#471,#473);
#475=EDGE_CURVE('',#470,#462,#474,.T.);
#476=ORIENTED_EDGE('',*,*,#475,.F.);
#477=CARTESIAN_POINT('',(3.700000000000001,-14.0,-22.500000000000000));
#478=VERTEX_POINT('',#477);
#479=CARTESIAN_POINT('',(3.700000000000000,-14.0,-22.500000000000000));
#480=DIRECTION('',(0.707106781186547,0.707106781186548,0.0));
#481=VECTOR('',#480,4.242640687119288);
#482=LINE('',#479,#481);
#483=EDGE_CURVE('',#478,#470,#482,.T.);
#484=ORIENTED_EDGE('',*,*,#483,.F.);
#485=CARTESIAN_POINT('',(-3.699999999999993,-14.0,-22.500000000000000));
#486=DIRECTION('',(1.0,0.0,0.0));
#487=VECTOR('',#486,7.399999999999993);
#488=LINE('',#485,#487);
#489=EDGE_CURVE('',#175,#478,#488,.T.);
#490=ORIENTED_EDGE('',*,*,#489,.F.);
#491=ORIENTED_EDGE('',*,*,#180,.F.);
#492=CARTESIAN_POINT('',(-6.700000000000000,-4.0,-22.500000000000000));
#493=VERTEX_POINT('',#492);
#494=CARTESIAN_POINT('',(-6.700000000000001,-4.0,-22.500000000000000));
#495=DIRECTION('',(0.0,-1.0,0.0));
#496=VECTOR('',#495,6.999999999999996);
#497=LINE('',#494,#496);
#498=EDGE_CURVE('',#493,#167,#497,.T.);
#499=ORIENTED_EDGE('',*,*,#498,.F.);
#500=CARTESIAN_POINT('',(-4.000000000000000,-4.0,-22.500000000000000));
#501=DIRECTION('',(-1.0,0.0,0.0));
#502=VECTOR('',#501,2.700000000000001);
#503=LINE('',#500,#502);
#504=EDGE_CURVE('',#341,#493,#503,.T.);
#505=ORIENTED_EDGE('',*,*,#504,.F.);
#506=EDGE_LOOP('',(#458,#459,#460,#468,#476,#484,#490,#491,#499,#505));
#507=FACE_OUTER_BOUND('',#506,.T.);
#508=ADVANCED_FACE('',(#507),#457,.F.);
#509=CARTESIAN_POINT('',(6.700000000000000,-4.0,0.0));
#510=DIRECTION('',(1.0,0.0,0.0));
#511=DIRECTION('',(0.0,0.0,-1.0));
#512=AXIS2_PLACEMENT_3D('',#509,#510,#511);
#513=PLANE('',#512);
#514=CARTESIAN_POINT('',(6.700000000000000,-4.0,22.500000000000000));
#515=VERTEX_POINT('',#514);
#516=CARTESIAN_POINT('',(6.700000000000001,-10.999999999999996,22.500000000000000));
#517=VERTEX_POINT('',#516);
#518=CARTESIAN_POINT('',(6.700000000000000,-4.0,22.500000000000000));
#519=DIRECTION('',(0.0,-1.0,0.0));
#520=VECTOR('',#519,6.999999999999996);
#521=LINE('',#518,#520);
#522=EDGE_CURVE('',#515,#517,#521,.T.);
#523=ORIENTED_EDGE('',*,*,#522,.T.);
#524=CARTESIAN_POINT('',(6.700000000000001,-10.999999999999996,22.500000000000000));
#525=DIRECTION('',(0.0,0.0,-1.0));
#526=VECTOR('',#525,45.0);
#527=LINE('',#524,#526);
#528=EDGE_CURVE('',#517,#470,#527,.T.);
#529=ORIENTED_EDGE('',*,*,#528,.T.);
#530=ORIENTED_EDGE('',*,*,#475,.T.);
#531=CARTESIAN_POINT('',(6.700000000000000,-4.0,22.500000000000000));
#532=DIRECTION('',(0.0,0.0,-1.0));
#533=VECTOR('',#532,45.0);
#534=LINE('',#531,#533);
#535=EDGE_CURVE('',#515,#462,#534,.T.);
#536=ORIENTED_EDGE('',*,*,#535,.F.);
#537=EDGE_LOOP('',(#523,#529,#530,#536));
#538=FACE_OUTER_BOUND('',#537,.T.);
#539=ADVANCED_FACE('',(#538),#513,.T.);
#540=CARTESIAN_POINT('',(6.700000000000001,-10.999999999999996,0.0));
#541=DIRECTION('',(0.707106781186548,-0.707106781186547,0.0));
#542=DIRECTION('',(0.0,0.0,-1.0));
#543=AXIS2_PLACEMENT_3D('',#540,#541,#542);
#544=PLANE('',#543);
#545=ORIENTED_EDGE('',*,*,#103,.T.);
#546=CARTESIAN_POINT('',(3.700000000000001,-14.0,-2.091052366632648));
#547=DIRECTION('',(0.0,0.0,-1.0));
#548=VECTOR('',#547,20.408947633367351);
#549=LINE('',#546,#548);
#550=EDGE_CURVE('',#97,#478,#549,.T.);
#551=ORIENTED_EDGE('',*,*,#550,.T.);
#552=ORIENTED_EDGE('',*,*,#483,.T.);
#553=ORIENTED_EDGE('',*,*,#528,.F.);
#554=CARTESIAN_POINT('',(6.700000000000001,-10.999999999999996,22.500000000000000));
#555=DIRECTION('',(-0.707106781186547,-0.707106781186548,0.0));
#556=VECTOR('',#555,4.242640687119288);
#557=LINE('',#554,#556);
#558=EDGE_CURVE('',#517,#198,#557,.T.);
#559=ORIENTED_EDGE('',*,*,#558,.T.);
#560=ORIENTED_EDGE('',*,*,#203,.T.);
#561=EDGE_LOOP('',(#545,#551,#552,#553,#559,#560));
#562=FACE_OUTER_BOUND('',#561,.T.);
#563=ADVANCED_FACE('',(#562),#544,.T.);
#564=CARTESIAN_POINT('',(3.700000000000001,-14.0,0.0));
#565=DIRECTION('',(0.0,-1.0,0.0));
#566=DIRECTION('',(0.0,0.0,-1.0));
#567=AXIS2_PLACEMENT_3D('',#564,#565,#566);
#568=PLANE('',#567);
#569=ORIENTED_EDGE('',*,*,#128,.T.);
#570=ORIENTED_EDGE('',*,*,#186,.T.);
#571=ORIENTED_EDGE('',*,*,#489,.T.);
#572=ORIENTED_EDGE('',*,*,#550,.F.);
#573=EDGE_LOOP('',(#569,#570,#571,#572));
#574=FACE_OUTER_BOUND('',#573,.T.);
#575=ADVANCED_FACE('',(#574),#568,.T.);
#576=CARTESIAN_POINT('',(-6.699999999999998,-10.999999999999996,0.0));
#577=DIRECTION('',(-1.0,0.0,0.0));
#578=DIRECTION('',(0.0,0.0,1.0));
#579=AXIS2_PLACEMENT_3D('',#576,#577,#578);
#580=PLANE('',#579);
#581=CARTESIAN_POINT('',(-6.700000000000000,-4.0,22.500000000000000));
#582=VERTEX_POINT('',#581);
#583=CARTESIAN_POINT('',(-6.699999999999998,-10.999999999999996,22.500000000000000));
#584=DIRECTION('',(0.0,1.0,0.0));
#585=VECTOR('',#584,6.999999999999996);
#586=LINE('',#583,#585);
#587=EDGE_CURVE('',#159,#582,#586,.T.);
#588=ORIENTED_EDGE('',*,*,#587,.T.);
#589=CARTESIAN_POINT('',(-6.700000000000000,-4.0,22.500000000000000));
#590=DIRECTION('',(0.0,0.0,-1.0));
#591=VECTOR('',#590,45.0);
#592=LINE('',#589,#591);
#593=EDGE_CURVE('',#582,#493,#592,.T.);
#594=ORIENTED_EDGE('',*,*,#593,.T.);
#595=ORIENTED_EDGE('',*,*,#498,.T.);
#596=ORIENTED_EDGE('',*,*,#172,.F.);
#597=EDGE_LOOP('',(#588,#594,#595,#596));
#598=FACE_OUTER_BOUND('',#597,.T.);
#599=ADVANCED_FACE('',(#598),#580,.T.);
#600=CARTESIAN_POINT('',(-6.700000000000000,-4.0,0.0));
#601=DIRECTION('',(0.0,1.0,0.0));
#602=DIRECTION('',(0.0,0.0,1.0));
#603=AXIS2_PLACEMENT_3D('',#600,#601,#602);
#604=PLANE('',#603);
#605=CARTESIAN_POINT('',(-6.700000000000000,-4.0,22.500000000000000));
#606=DIRECTION('',(1.0,0.0,0.0));
#607=VECTOR('',#606,2.700000000000001);
#608=LINE('',#605,#607);
#609=EDGE_CURVE('',#582,#302,#608,.T.);
#610=ORIENTED_EDGE('',*,*,#609,.T.);
#611=ORIENTED_EDGE('',*,*,#307,.T.);
#612=ORIENTED_EDGE('',*,*,#268,.F.);
#613=ORIENTED_EDGE('',*,*,#424,.F.);
#614=CARTESIAN_POINT('',(4.000000000000000,-4.0,22.500000000000000));
#615=DIRECTION('',(1.0,0.0,0.0));
#616=VECTOR('',#615,2.700000000000001);
#617=LINE('',#614,#616);
#618=EDGE_CURVE('',#413,#515,#617,.T.);
#619=ORIENTED_EDGE('',*,*,#618,.T.);
#620=ORIENTED_EDGE('',*,*,#535,.T.);
#621=ORIENTED_EDGE('',*,*,#467,.T.);
#622=ORIENTED_EDGE('',*,*,#441,.F.);
#623=ORIENTED_EDGE('',*,*,#228,.F.);
#624=ORIENTED_EDGE('',*,*,#352,.T.);
#625=ORIENTED_EDGE('',*,*,#504,.T.);
#626=ORIENTED_EDGE('',*,*,#593,.F.);
#627=EDGE_LOOP('',(#610,#611,#612,#613,#619,#620,#621,#622,#623,#624,#625,#626));
#628=FACE_OUTER_BOUND('',#627,.T.);
#629=ORIENTED_EDGE('',*,*,#139,.T.);
#630=EDGE_LOOP('',(#629));
#631=FACE_BOUND('',#630,.T.);
#632=ADVANCED_FACE('',(#628,#631),#604,.T.);
#633=CARTESIAN_POINT('',(2.775558E-016,-4.238995408609886,22.500000000000000));
#634=DIRECTION('',(0.0,0.0,1.0));
#635=DIRECTION('',(1.0,0.0,0.0));
#636=AXIS2_PLACEMENT_3D('',#633,#634,#635);
#637=PLANE('',#636);
#638=ORIENTED_EDGE('',*,*,#418,.F.);
#639=ORIENTED_EDGE('',*,*,#370,.F.);
#640=ORIENTED_EDGE('',*,*,#315,.F.);
#641=ORIENTED_EDGE('',*,*,#609,.F.);
#642=ORIENTED_EDGE('',*,*,#587,.F.);
#643=ORIENTED_EDGE('',*,*,#164,.F.);
#644=ORIENTED_EDGE('',*,*,#209,.F.);
#645=ORIENTED_EDGE('',*,*,#558,.F.);
#646=ORIENTED_EDGE('',*,*,#522,.F.);
#647=ORIENTED_EDGE('',*,*,#618,.F.);
#648=EDGE_LOOP('',(#638,#639,#640,#641,#642,#643,#644,#645,#646,#647));
#649=FACE_OUTER_BOUND('',#648,.T.);
#650=ADVANCED_FACE('',(#649),#637,.T.);
#651=CLOSED_SHELL('',(#143,#190,#214,#254,#294,#325,#356,#380,#404,#428,#452,#508,#539,#563,#575,#599,#632,#650));
#652=MANIFOLD_SOLID_BREP('T\X2\011B\X0\leso1',#651);
#653=COLOUR_RGB('Plast (\X2\FFFD\X0\ern\X2\FFFD\X0\)',0.701960802078247,0.701960802078247,0.701960802078247);
#654=FILL_AREA_STYLE_COLOUR('Plast (\X2\FFFD\X0\ern\X2\FFFD\X0\)',#653);
#655=FILL_AREA_STYLE('Plast (\X2\FFFD\X0\ern\X2\FFFD\X0\)',(#654));
#656=SURFACE_STYLE_FILL_AREA(#655);
#657=SURFACE_SIDE_STYLE('Plast (\X2\FFFD\X0\ern\X2\FFFD\X0\)',(#656));
#658=SURFACE_STYLE_USAGE(.BOTH.,#657);
#659=PRESENTATION_STYLE_ASSIGNMENT((#658));
#660=STYLED_ITEM('',(#659),#652);
#661=MECHANICAL_DESIGN_GEOMETRIC_PRESENTATION_REPRESENTATION('',(#660),#36);
#662=ADVANCED_BREP_SHAPE_REPRESENTATION('ABSR',(#652),#36);
#663=SHAPE_REPRESENTATION_RELATIONSHIP('SRR','None',#662,#41);
ENDSEC;
END-ISO-10303-21;
