ISO-10303-21;
HEADER;
/* Generated by software containing ST-Developer
 * from STEP Tools, Inc. (www.steptools.com) 
 */

FILE_DESCRIPTION(
/* description */ ('Nakr\X2\0119\X0\tka M6 L=25mm'),
/* implementation_level */ '2;1');

FILE_NAME(
/* name */ 
'W:\\_BIG DATA\\STP IGS\\Akcesoria\\Elementy z\X2\01420105\X0\czne\\ST
P\\Nakr\X2\0119\X0\tki\\210625.stp',
/* time_stamp */ '2023-01-20T07:34:06+01:00',
/* author */ ('aluteckkpl_am'),
/* organization */ (''),
/* preprocessor_version */ 'ST-DEVELOPER v18.1',
/* originating_system */ 'Autodesk Inventor 2021',
/* authorisation */ '');

FILE_SCHEMA (('CONFIG_CONTROL_DESIGN'));
ENDSEC;

DATA;
#10=MECHANICAL_DESIGN_GEOMETRIC_PRESENTATION_REPRESENTATION('',(#13),#436);
#11=SHAPE_REPRESENTATION_RELATIONSHIP('SRR','None',#443,#12);
#12=ADVANCED_BREP_SHAPE_REPRESENTATION('',(#14),#435);
#13=STYLED_ITEM('',(#452),#14);
#14=MANIFOLD_SOLID_BREP('T\X2\011B\X0\leso1',#261);
#15=FACE_BOUND('',#51,.T.);
#16=FACE_BOUND('',#56,.T.);
#17=PLANE('',#285);
#18=PLANE('',#286);
#19=PLANE('',#287);
#20=PLANE('',#288);
#21=PLANE('',#289);
#22=PLANE('',#290);
#23=PLANE('',#291);
#24=PLANE('',#292);
#25=PLANE('',#293);
#26=PLANE('',#294);
#27=PLANE('',#295);
#28=PLANE('',#296);
#29=FACE_OUTER_BOUND('',#42,.T.);
#30=FACE_OUTER_BOUND('',#43,.T.);
#31=FACE_OUTER_BOUND('',#44,.T.);
#32=FACE_OUTER_BOUND('',#45,.T.);
#33=FACE_OUTER_BOUND('',#46,.T.);
#34=FACE_OUTER_BOUND('',#47,.T.);
#35=FACE_OUTER_BOUND('',#48,.T.);
#36=FACE_OUTER_BOUND('',#49,.T.);
#37=FACE_OUTER_BOUND('',#50,.T.);
#38=FACE_OUTER_BOUND('',#52,.T.);
#39=FACE_OUTER_BOUND('',#53,.T.);
#40=FACE_OUTER_BOUND('',#54,.T.);
#41=FACE_OUTER_BOUND('',#55,.T.);
#42=EDGE_LOOP('',(#179,#180,#181,#182,#183));
#43=EDGE_LOOP('',(#184,#185,#186,#187));
#44=EDGE_LOOP('',(#188,#189,#190,#191,#192,#193));
#45=EDGE_LOOP('',(#194,#195,#196,#197,#198,#199));
#46=EDGE_LOOP('',(#200,#201,#202,#203));
#47=EDGE_LOOP('',(#204,#205,#206,#207));
#48=EDGE_LOOP('',(#208,#209,#210,#211,#212,#213));
#49=EDGE_LOOP('',(#214,#215,#216,#217));
#50=EDGE_LOOP('',(#218,#219,#220,#221,#222,#223,#224,#225));
#51=EDGE_LOOP('',(#226,#227));
#52=EDGE_LOOP('',(#228,#229,#230,#231,#232,#233));
#53=EDGE_LOOP('',(#234,#235,#236,#237));
#54=EDGE_LOOP('',(#238,#239,#240,#241));
#55=EDGE_LOOP('',(#242,#243,#244,#245));
#56=EDGE_LOOP('',(#246));
#57=LINE('',#369,#88);
#58=LINE('',#374,#89);
#59=LINE('',#376,#90);
#60=LINE('',#378,#91);
#61=LINE('',#379,#92);
#62=LINE('',#382,#93);
#63=LINE('',#384,#94);
#64=LINE('',#386,#95);
#65=LINE('',#388,#96);
#66=LINE('',#389,#97);
#67=LINE('',#392,#98);
#68=LINE('',#394,#99);
#69=LINE('',#396,#100);
#70=LINE('',#397,#101);
#71=LINE('',#400,#102);
#72=LINE('',#402,#103);
#73=LINE('',#403,#104);
#74=LINE('',#406,#105);
#75=LINE('',#408,#106);
#76=LINE('',#409,#107);
#77=LINE('',#412,#108);
#78=LINE('',#414,#109);
#79=LINE('',#415,#110);
#80=LINE('',#418,#111);
#81=LINE('',#419,#112);
#82=LINE('',#422,#113);
#83=LINE('',#424,#114);
#84=LINE('',#425,#115);
#85=LINE('',#427,#116);
#86=LINE('',#428,#117);
#87=LINE('',#430,#118);
#88=VECTOR('',#305,2.4585);
#89=VECTOR('',#310,10.);
#90=VECTOR('',#311,10.);
#91=VECTOR('',#312,10.);
#92=VECTOR('',#313,10.);
#93=VECTOR('',#316,10.);
#94=VECTOR('',#317,10.);
#95=VECTOR('',#318,10.);
#96=VECTOR('',#319,10.);
#97=VECTOR('',#320,10.);
#98=VECTOR('',#323,10.);
#99=VECTOR('',#324,10.);
#100=VECTOR('',#325,10.);
#101=VECTOR('',#326,10.);
#102=VECTOR('',#329,10.);
#103=VECTOR('',#330,10.);
#104=VECTOR('',#331,10.);
#105=VECTOR('',#334,10.);
#106=VECTOR('',#335,10.);
#107=VECTOR('',#336,10.);
#108=VECTOR('',#339,10.);
#109=VECTOR('',#340,10.);
#110=VECTOR('',#341,10.);
#111=VECTOR('',#344,10.);
#112=VECTOR('',#345,10.);
#113=VECTOR('',#348,10.);
#114=VECTOR('',#349,10.);
#115=VECTOR('',#350,10.);
#116=VECTOR('',#353,10.);
#117=VECTOR('',#354,10.);
#118=VECTOR('',#357,10.);
#119=CIRCLE('',#282,2.4585);
#120=CIRCLE('',#283,2.4585);
#121=CIRCLE('',#284,2.4585);
#122=VERTEX_POINT('',#364);
#123=VERTEX_POINT('',#365);
#124=VERTEX_POINT('',#368);
#125=VERTEX_POINT('',#372);
#126=VERTEX_POINT('',#373);
#127=VERTEX_POINT('',#375);
#128=VERTEX_POINT('',#377);
#129=VERTEX_POINT('',#381);
#130=VERTEX_POINT('',#383);
#131=VERTEX_POINT('',#385);
#132=VERTEX_POINT('',#387);
#133=VERTEX_POINT('',#391);
#134=VERTEX_POINT('',#393);
#135=VERTEX_POINT('',#395);
#136=VERTEX_POINT('',#399);
#137=VERTEX_POINT('',#401);
#138=VERTEX_POINT('',#405);
#139=VERTEX_POINT('',#407);
#140=VERTEX_POINT('',#411);
#141=VERTEX_POINT('',#413);
#142=VERTEX_POINT('',#417);
#143=VERTEX_POINT('',#421);
#144=VERTEX_POINT('',#423);
#145=EDGE_CURVE('',#122,#123,#119,.T.);
#146=EDGE_CURVE('',#123,#122,#120,.T.);
#147=EDGE_CURVE('',#123,#124,#57,.T.);
#148=EDGE_CURVE('',#124,#124,#121,.T.);
#149=EDGE_CURVE('',#125,#126,#58,.T.);
#150=EDGE_CURVE('',#126,#127,#59,.T.);
#151=EDGE_CURVE('',#127,#128,#60,.T.);
#152=EDGE_CURVE('',#128,#125,#61,.T.);
#153=EDGE_CURVE('',#129,#128,#62,.T.);
#154=EDGE_CURVE('',#130,#129,#63,.T.);
#155=EDGE_CURVE('',#131,#130,#64,.T.);
#156=EDGE_CURVE('',#132,#131,#65,.T.);
#157=EDGE_CURVE('',#132,#125,#66,.T.);
#158=EDGE_CURVE('',#127,#133,#67,.T.);
#159=EDGE_CURVE('',#134,#133,#68,.T.);
#160=EDGE_CURVE('',#134,#135,#69,.T.);
#161=EDGE_CURVE('',#135,#129,#70,.T.);
#162=EDGE_CURVE('',#136,#132,#71,.T.);
#163=EDGE_CURVE('',#131,#137,#72,.T.);
#164=EDGE_CURVE('',#137,#136,#73,.T.);
#165=EDGE_CURVE('',#138,#137,#74,.T.);
#166=EDGE_CURVE('',#139,#138,#75,.T.);
#167=EDGE_CURVE('',#139,#136,#76,.T.);
#168=EDGE_CURVE('',#130,#140,#77,.T.);
#169=EDGE_CURVE('',#140,#141,#78,.T.);
#170=EDGE_CURVE('',#138,#141,#79,.T.);
#171=EDGE_CURVE('',#142,#139,#80,.T.);
#172=EDGE_CURVE('',#141,#142,#81,.T.);
#173=EDGE_CURVE('',#143,#142,#82,.T.);
#174=EDGE_CURVE('',#144,#143,#83,.T.);
#175=EDGE_CURVE('',#126,#144,#84,.T.);
#176=EDGE_CURVE('',#135,#140,#85,.T.);
#177=EDGE_CURVE('',#143,#134,#86,.T.);
#178=EDGE_CURVE('',#133,#144,#87,.T.);
#179=ORIENTED_EDGE('',*,*,#145,.F.);
#180=ORIENTED_EDGE('',*,*,#146,.F.);
#181=ORIENTED_EDGE('',*,*,#147,.T.);
#182=ORIENTED_EDGE('',*,*,#148,.F.);
#183=ORIENTED_EDGE('',*,*,#147,.F.);
#184=ORIENTED_EDGE('',*,*,#149,.T.);
#185=ORIENTED_EDGE('',*,*,#150,.T.);
#186=ORIENTED_EDGE('',*,*,#151,.T.);
#187=ORIENTED_EDGE('',*,*,#152,.T.);
#188=ORIENTED_EDGE('',*,*,#152,.F.);
#189=ORIENTED_EDGE('',*,*,#153,.F.);
#190=ORIENTED_EDGE('',*,*,#154,.F.);
#191=ORIENTED_EDGE('',*,*,#155,.F.);
#192=ORIENTED_EDGE('',*,*,#156,.F.);
#193=ORIENTED_EDGE('',*,*,#157,.T.);
#194=ORIENTED_EDGE('',*,*,#151,.F.);
#195=ORIENTED_EDGE('',*,*,#158,.T.);
#196=ORIENTED_EDGE('',*,*,#159,.F.);
#197=ORIENTED_EDGE('',*,*,#160,.T.);
#198=ORIENTED_EDGE('',*,*,#161,.T.);
#199=ORIENTED_EDGE('',*,*,#153,.T.);
#200=ORIENTED_EDGE('',*,*,#162,.T.);
#201=ORIENTED_EDGE('',*,*,#156,.T.);
#202=ORIENTED_EDGE('',*,*,#163,.T.);
#203=ORIENTED_EDGE('',*,*,#164,.T.);
#204=ORIENTED_EDGE('',*,*,#164,.F.);
#205=ORIENTED_EDGE('',*,*,#165,.F.);
#206=ORIENTED_EDGE('',*,*,#166,.F.);
#207=ORIENTED_EDGE('',*,*,#167,.T.);
#208=ORIENTED_EDGE('',*,*,#163,.F.);
#209=ORIENTED_EDGE('',*,*,#155,.T.);
#210=ORIENTED_EDGE('',*,*,#168,.T.);
#211=ORIENTED_EDGE('',*,*,#169,.T.);
#212=ORIENTED_EDGE('',*,*,#170,.F.);
#213=ORIENTED_EDGE('',*,*,#165,.T.);
#214=ORIENTED_EDGE('',*,*,#171,.T.);
#215=ORIENTED_EDGE('',*,*,#166,.T.);
#216=ORIENTED_EDGE('',*,*,#170,.T.);
#217=ORIENTED_EDGE('',*,*,#172,.T.);
#218=ORIENTED_EDGE('',*,*,#149,.F.);
#219=ORIENTED_EDGE('',*,*,#157,.F.);
#220=ORIENTED_EDGE('',*,*,#162,.F.);
#221=ORIENTED_EDGE('',*,*,#167,.F.);
#222=ORIENTED_EDGE('',*,*,#171,.F.);
#223=ORIENTED_EDGE('',*,*,#173,.F.);
#224=ORIENTED_EDGE('',*,*,#174,.F.);
#225=ORIENTED_EDGE('',*,*,#175,.F.);
#226=ORIENTED_EDGE('',*,*,#145,.T.);
#227=ORIENTED_EDGE('',*,*,#146,.T.);
#228=ORIENTED_EDGE('',*,*,#172,.F.);
#229=ORIENTED_EDGE('',*,*,#169,.F.);
#230=ORIENTED_EDGE('',*,*,#176,.F.);
#231=ORIENTED_EDGE('',*,*,#160,.F.);
#232=ORIENTED_EDGE('',*,*,#177,.F.);
#233=ORIENTED_EDGE('',*,*,#173,.T.);
#234=ORIENTED_EDGE('',*,*,#174,.T.);
#235=ORIENTED_EDGE('',*,*,#177,.T.);
#236=ORIENTED_EDGE('',*,*,#159,.T.);
#237=ORIENTED_EDGE('',*,*,#178,.T.);
#238=ORIENTED_EDGE('',*,*,#150,.F.);
#239=ORIENTED_EDGE('',*,*,#175,.T.);
#240=ORIENTED_EDGE('',*,*,#178,.F.);
#241=ORIENTED_EDGE('',*,*,#158,.F.);
#242=ORIENTED_EDGE('',*,*,#168,.F.);
#243=ORIENTED_EDGE('',*,*,#154,.T.);
#244=ORIENTED_EDGE('',*,*,#161,.F.);
#245=ORIENTED_EDGE('',*,*,#176,.T.);
#246=ORIENTED_EDGE('',*,*,#148,.T.);
#247=CYLINDRICAL_SURFACE('',#281,2.4585);
#248=ADVANCED_FACE('',(#29),#247,.F.);
#249=ADVANCED_FACE('',(#30),#17,.T.);
#250=ADVANCED_FACE('',(#31),#18,.T.);
#251=ADVANCED_FACE('',(#32),#19,.T.);
#252=ADVANCED_FACE('',(#33),#20,.T.);
#253=ADVANCED_FACE('',(#34),#21,.T.);
#254=ADVANCED_FACE('',(#35),#22,.T.);
#255=ADVANCED_FACE('',(#36),#23,.T.);
#256=ADVANCED_FACE('',(#37,#15),#24,.T.);
#257=ADVANCED_FACE('',(#38),#25,.T.);
#258=ADVANCED_FACE('',(#39),#26,.T.);
#259=ADVANCED_FACE('',(#40),#27,.T.);
#260=ADVANCED_FACE('',(#41,#16),#28,.F.);
#261=CLOSED_SHELL('',(#248,#249,#250,#251,#252,#253,#254,#255,#256,#257,
#258,#259,#260));
#262=DERIVED_UNIT_ELEMENT(#264,1.);
#263=DERIVED_UNIT_ELEMENT(#438,3.);
#264=(
MASS_UNIT()
NAMED_UNIT(*)
SI_UNIT($,.GRAM.)
);
#265=DERIVED_UNIT((#262,#263));
#266=MEASURE_REPRESENTATION_ITEM('density measure',
POSITIVE_RATIO_MEASURE(7.85),#265);
#267=PROPERTY_DEFINITION_REPRESENTATION(#272,#269);
#268=PROPERTY_DEFINITION_REPRESENTATION(#273,#270);
#269=REPRESENTATION('material name',(#271),#435);
#270=REPRESENTATION('density',(#266),#435);
#271=DESCRIPTIVE_REPRESENTATION_ITEM('Ocel zinkovan\X\E1',
'Ocel zinkovan\X\E1');
#272=PROPERTY_DEFINITION('material property','material name',#445);
#273=PROPERTY_DEFINITION('material property','density of part',#445);
#274=DATE_TIME_ROLE('creation_date');
#275=CC_DESIGN_DATE_AND_TIME_ASSIGNMENT(#276,#274,(#445));
#276=DATE_AND_TIME(#277,#278);
#277=CALENDAR_DATE(2009,23,11);
#278=LOCAL_TIME(0,0,0.,#279);
#279=COORDINATED_UNIVERSAL_TIME_OFFSET(0,0,.BEHIND.);
#280=AXIS2_PLACEMENT_3D('placement',#362,#297,#298);
#281=AXIS2_PLACEMENT_3D('',#363,#299,#300);
#282=AXIS2_PLACEMENT_3D('',#366,#301,#302);
#283=AXIS2_PLACEMENT_3D('',#367,#303,#304);
#284=AXIS2_PLACEMENT_3D('',#370,#306,#307);
#285=AXIS2_PLACEMENT_3D('',#371,#308,#309);
#286=AXIS2_PLACEMENT_3D('',#380,#314,#315);
#287=AXIS2_PLACEMENT_3D('',#390,#321,#322);
#288=AXIS2_PLACEMENT_3D('',#398,#327,#328);
#289=AXIS2_PLACEMENT_3D('',#404,#332,#333);
#290=AXIS2_PLACEMENT_3D('',#410,#337,#338);
#291=AXIS2_PLACEMENT_3D('',#416,#342,#343);
#292=AXIS2_PLACEMENT_3D('',#420,#346,#347);
#293=AXIS2_PLACEMENT_3D('',#426,#351,#352);
#294=AXIS2_PLACEMENT_3D('',#429,#355,#356);
#295=AXIS2_PLACEMENT_3D('',#431,#358,#359);
#296=AXIS2_PLACEMENT_3D('',#432,#360,#361);
#297=DIRECTION('axis',(0.,0.,1.));
#298=DIRECTION('refdir',(1.,0.,0.));
#299=DIRECTION('center_axis',(0.,0.,1.));
#300=DIRECTION('ref_axis',(1.,0.,0.));
#301=DIRECTION('center_axis',(0.,0.,-1.));
#302=DIRECTION('ref_axis',(1.,0.,0.));
#303=DIRECTION('center_axis',(0.,0.,-1.));
#304=DIRECTION('ref_axis',(1.,0.,0.));
#305=DIRECTION('',(0.,0.,-1.));
#306=DIRECTION('center_axis',(0.,0.,1.));
#307=DIRECTION('ref_axis',(1.,0.,0.));
#308=DIRECTION('center_axis',(0.707106781186548,-0.707106781186548,0.));
#309=DIRECTION('ref_axis',(0.,0.,-1.));
#310=DIRECTION('',(-0.707106781186548,-0.707106781186548,0.));
#311=DIRECTION('',(0.,0.,-1.));
#312=DIRECTION('',(0.577350269189626,0.577350269189626,-0.577350269189626));
#313=DIRECTION('',(0.,0.,1.));
#314=DIRECTION('center_axis',(1.,0.,0.));
#315=DIRECTION('ref_axis',(0.,0.,-1.));
#316=DIRECTION('',(0.,-0.707106781186547,0.707106781186548));
#317=DIRECTION('',(0.,-1.,0.));
#318=DIRECTION('',(0.,-0.707106781186547,-0.707106781186548));
#319=DIRECTION('',(0.,0.,-1.));
#320=DIRECTION('',(0.,-1.,0.));
#321=DIRECTION('center_axis',(-9.42055475210265E-17,-0.707106781186548,
-0.707106781186547));
#322=DIRECTION('ref_axis',(-1.,0.,1.33226762955019E-16));
#323=DIRECTION('',(-1.,1.33226762955019E-16,0.));
#324=DIRECTION('',(0.577350269189624,-0.577350269189627,0.577350269189627));
#325=DIRECTION('',(0.,0.707106781186547,-0.707106781186548));
#326=DIRECTION('',(1.,-1.33226762955019E-16,0.));
#327=DIRECTION('center_axis',(0.707106781186549,0.707106781186546,0.));
#328=DIRECTION('ref_axis',(0.,0.,-1.));
#329=DIRECTION('',(0.707106781186546,-0.707106781186549,0.));
#330=DIRECTION('',(-0.577350269189624,0.577350269189627,0.577350269189627));
#331=DIRECTION('',(0.,0.,1.));
#332=DIRECTION('center_axis',(-4.44089209850063E-17,1.,0.));
#333=DIRECTION('ref_axis',(0.,0.,1.));
#334=DIRECTION('',(1.,4.44089209850063E-17,0.));
#335=DIRECTION('',(0.,0.,-1.));
#336=DIRECTION('',(1.,4.44089209850063E-17,0.));
#337=DIRECTION('center_axis',(-3.14018491736755E-17,0.707106781186548,-0.707106781186547));
#338=DIRECTION('ref_axis',(-1.,0.,4.44089209850063E-17));
#339=DIRECTION('',(-1.,-4.44089209850063E-17,0.));
#340=DIRECTION('',(0.,0.707106781186547,0.707106781186548));
#341=DIRECTION('',(-0.577350269189626,-0.577350269189626,-0.577350269189626));
#342=DIRECTION('center_axis',(-0.707106781186548,0.707106781186548,0.));
#343=DIRECTION('ref_axis',(0.,0.,1.));
#344=DIRECTION('',(0.707106781186548,0.707106781186548,0.));
#345=DIRECTION('',(0.,0.,1.));
#346=DIRECTION('center_axis',(0.,0.,1.));
#347=DIRECTION('ref_axis',(1.,0.,0.));
#348=DIRECTION('',(0.,1.,0.));
#349=DIRECTION('',(-0.707106781186546,0.707106781186549,0.));
#350=DIRECTION('',(-1.,1.33226762955019E-16,0.));
#351=DIRECTION('center_axis',(-1.,0.,0.));
#352=DIRECTION('ref_axis',(0.,0.,1.));
#353=DIRECTION('',(0.,1.,0.));
#354=DIRECTION('',(0.,0.,-1.));
#355=DIRECTION('center_axis',(-0.707106781186549,-0.707106781186546,0.));
#356=DIRECTION('ref_axis',(0.,0.,1.));
#357=DIRECTION('',(0.,0.,1.));
#358=DIRECTION('center_axis',(-1.33226762955019E-16,-1.,0.));
#359=DIRECTION('ref_axis',(0.,0.,-1.));
#360=DIRECTION('center_axis',(0.,0.,1.));
#361=DIRECTION('ref_axis',(1.,0.,0.));
#362=CARTESIAN_POINT('',(0.,0.,0.));
#363=CARTESIAN_POINT('Origin',(0.,0.,-22.8097205817759));
#364=CARTESIAN_POINT('',(2.4585,0.,6.));
#365=CARTESIAN_POINT('',(-2.4585,-3.01079415570377E-16,6.));
#366=CARTESIAN_POINT('Origin',(0.,0.,6.));
#367=CARTESIAN_POINT('Origin',(0.,0.,6.));
#368=CARTESIAN_POINT('',(-2.4585,-3.01079415570377E-16,0.));
#369=CARTESIAN_POINT('',(-2.4585,-3.01079415570377E-16,-22.8097205817759));
#370=CARTESIAN_POINT('Origin',(0.,0.,0.));
#371=CARTESIAN_POINT('Origin',(12.25,-6.25,0.));
#372=CARTESIAN_POINT('',(12.5,-6.,6.));
#373=CARTESIAN_POINT('',(12.,-6.5,6.));
#374=CARTESIAN_POINT('',(10.75,-7.75,6.));
#375=CARTESIAN_POINT('',(12.,-6.5,2.));
#376=CARTESIAN_POINT('',(12.,-6.5,0.));
#377=CARTESIAN_POINT('',(12.5,-6.,1.5));
#378=CARTESIAN_POINT('',(11.7916666666667,-6.70833333333333,2.20833333333333));
#379=CARTESIAN_POINT('',(12.5,-6.,0.));
#380=CARTESIAN_POINT('Origin',(12.5,6.5,0.));
#381=CARTESIAN_POINT('',(12.5,-4.5,0.));
#382=CARTESIAN_POINT('',(12.5,-2.25,-2.25));
#383=CARTESIAN_POINT('',(12.5,4.5,0.));
#384=CARTESIAN_POINT('',(12.5,6.5,0.));
#385=CARTESIAN_POINT('',(12.5,6.,1.5));
#386=CARTESIAN_POINT('',(12.5,5.5,1.));
#387=CARTESIAN_POINT('',(12.5,6.,6.));
#388=CARTESIAN_POINT('',(12.5,6.,0.));
#389=CARTESIAN_POINT('',(12.5,6.5,6.));
#390=CARTESIAN_POINT('Origin',(6.25,-5.5,1.));
#391=CARTESIAN_POINT('',(-12.,-6.5,2.));
#392=CARTESIAN_POINT('',(6.25,-6.5,2.));
#393=CARTESIAN_POINT('',(-12.5,-6.,1.5));
#394=CARTESIAN_POINT('',(-9.70833333333335,-8.79166666666666,4.29166666666666));
#395=CARTESIAN_POINT('',(-12.5,-4.5,0.));
#396=CARTESIAN_POINT('',(-12.5,-5.49999999999999,1.));
#397=CARTESIAN_POINT('',(6.25,-4.5,0.));
#398=CARTESIAN_POINT('Origin',(12.25,6.25,0.));
#399=CARTESIAN_POINT('',(12.,6.5,6.));
#400=CARTESIAN_POINT('',(10.75,7.74999999999999,6.));
#401=CARTESIAN_POINT('',(12.,6.5,2.));
#402=CARTESIAN_POINT('',(9.70833333333335,8.79166666666666,4.29166666666666));
#403=CARTESIAN_POINT('',(12.,6.5,0.));
#404=CARTESIAN_POINT('Origin',(-12.5,6.5,0.));
#405=CARTESIAN_POINT('',(-12.,6.5,2.));
#406=CARTESIAN_POINT('',(-6.25,6.5,2.));
#407=CARTESIAN_POINT('',(-12.,6.5,6.));
#408=CARTESIAN_POINT('',(-12.,6.5,0.));
#409=CARTESIAN_POINT('',(-12.5,6.5,6.));
#410=CARTESIAN_POINT('Origin',(-6.25,5.5,1.));
#411=CARTESIAN_POINT('',(-12.5,4.5,0.));
#412=CARTESIAN_POINT('',(-6.25,4.5,0.));
#413=CARTESIAN_POINT('',(-12.5,6.,1.5));
#414=CARTESIAN_POINT('',(-12.5,2.25,-2.25));
#415=CARTESIAN_POINT('',(-11.7916666666667,6.70833333333333,2.20833333333333));
#416=CARTESIAN_POINT('Origin',(-12.25,6.25,0.));
#417=CARTESIAN_POINT('',(-12.5,6.,6.));
#418=CARTESIAN_POINT('',(-10.75,7.75,6.));
#419=CARTESIAN_POINT('',(-12.5,6.,0.));
#420=CARTESIAN_POINT('Origin',(5.55111512312578E-16,2.21911803127827E-15,
6.));
#421=CARTESIAN_POINT('',(-12.5,-6.,6.));
#422=CARTESIAN_POINT('',(-12.5,-6.5,6.));
#423=CARTESIAN_POINT('',(-12.,-6.5,6.));
#424=CARTESIAN_POINT('',(-10.75,-7.74999999999999,6.));
#425=CARTESIAN_POINT('',(12.5,-6.5,6.));
#426=CARTESIAN_POINT('Origin',(-12.5,-6.5,0.));
#427=CARTESIAN_POINT('',(-12.5,-6.5,0.));
#428=CARTESIAN_POINT('',(-12.5,-6.,0.));
#429=CARTESIAN_POINT('Origin',(-12.25,-6.25,0.));
#430=CARTESIAN_POINT('',(-12.,-6.5,0.));
#431=CARTESIAN_POINT('Origin',(12.5,-6.5,0.));
#432=CARTESIAN_POINT('Origin',(5.55111512312578E-16,2.21911803127827E-15,
0.));
#433=UNCERTAINTY_MEASURE_WITH_UNIT(LENGTH_MEASURE(0.01),#437,
'DISTANCE_ACCURACY_VALUE',
'Maximum model space distance between geometric entities at asserted c
onnectivities');
#434=UNCERTAINTY_MEASURE_WITH_UNIT(LENGTH_MEASURE(0.01),#437,
'DISTANCE_ACCURACY_VALUE',
'Maximum model space distance between geometric entities at asserted c
onnectivities');
#435=(
GEOMETRIC_REPRESENTATION_CONTEXT(3)
GLOBAL_UNCERTAINTY_ASSIGNED_CONTEXT((#433))
GLOBAL_UNIT_ASSIGNED_CONTEXT((#437,#439,#440))
REPRESENTATION_CONTEXT('','3D')
);
#436=(
GEOMETRIC_REPRESENTATION_CONTEXT(3)
GLOBAL_UNCERTAINTY_ASSIGNED_CONTEXT((#434))
GLOBAL_UNIT_ASSIGNED_CONTEXT((#437,#439,#440))
REPRESENTATION_CONTEXT('','3D')
);
#437=(
LENGTH_UNIT()
NAMED_UNIT(*)
SI_UNIT(.MILLI.,.METRE.)
);
#438=(
LENGTH_UNIT()
NAMED_UNIT(*)
SI_UNIT(.CENTI.,.METRE.)
);
#439=(
NAMED_UNIT(*)
PLANE_ANGLE_UNIT()
SI_UNIT($,.RADIAN.)
);
#440=(
NAMED_UNIT(*)
SI_UNIT($,.STERADIAN.)
SOLID_ANGLE_UNIT()
);
#441=SHAPE_DEFINITION_REPRESENTATION(#442,#443);
#442=PRODUCT_DEFINITION_SHAPE('',$,#445);
#443=SHAPE_REPRESENTATION('',(#280),#435);
#444=DESIGN_CONTEXT('part definition',#449,'design');
#445=PRODUCT_DEFINITION('210625','210625',#446,#444);
#446=PRODUCT_DEFINITION_FORMATION('',$,#451);
#447=PRODUCT_RELATED_PRODUCT_CATEGORY('210625','210625',(#451));
#448=APPLICATION_PROTOCOL_DEFINITION('international standard',
'ap203_configuration_controlled_3d_design_of_mechanical_parts_and_asse
mblies_mim_lf',2004,#449);
#449=APPLICATION_CONTEXT(
'Configuration Controlled 3D Design of Mechanical Parts and Assemblies');
#450=MECHANICAL_CONTEXT('part definition',#449,'mechanical');
#451=PRODUCT('210625','210625','Nakr\X2\0119\X0\tka M6 L=25mm',(#450));
#452=PRESENTATION_STYLE_ASSIGNMENT((#453));
#453=SURFACE_STYLE_USAGE(.BOTH.,#456);
#454=SURFACE_STYLE_RENDERING_WITH_PROPERTIES($,#460,(#455));
#455=SURFACE_STYLE_TRANSPARENT(0.);
#456=SURFACE_SIDE_STYLE('',(#457,#454));
#457=SURFACE_STYLE_FILL_AREA(#458);
#458=FILL_AREA_STYLE('',(#459));
#459=FILL_AREA_STYLE_COLOUR('',#460);
#460=COLOUR_RGB('',0.87843137254902,0.874509803921569,0.858823529411765);
ENDSEC;
END-ISO-10303-21;
