ISO-10303-21;
HEADER;
/* Generated by software containing ST-Developer
 * from STEP Tools, Inc. (www.steptools.com) 
 */

FILE_DESCRIPTION(
/* description */ ('\X2\015A\X0\ruba DIN 7984'),
/* implementation_level */ '2;1');

FILE_NAME(
/* name */ 'C:\\Users\\aluteckkpl_am\\Desktop\\\X2\015A\X0\ruby stp ig
s\\201220.stp',
/* time_stamp */ '2023-01-20T07:36:04+01:00',
/* author */ ('aluteckkpl_am'),
/* organization */ (''),
/* preprocessor_version */ 'ST-DEVELOPER v18.1',
/* originating_system */ 'Autodesk Inventor 2021',
/* authorisation */ '');

FILE_SCHEMA (('CONFIG_CONTROL_DESIGN'));
ENDSEC;

DATA;
#10=MECHANICAL_DESIGN_GEOMETRIC_PRESENTATION_REPRESENTATION('',(#13),#520);
#11=SHAPE_REPRESENTATION_RELATIONSHIP('SRR','None',#527,#12);
#12=ADVANCED_BREP_SHAPE_REPRESENTATION('',(#14),#519);
#13=STYLED_ITEM('',(#536),#14);
#14=MANIFOLD_SOLID_BREP('Solid1',#284);
#15=(
BOUNDED_CURVE()
B_SPLINE_CURVE(2,(#477,#478,#479),.UNSPECIFIED.,.F.,.F.)
B_SPLINE_CURVE_WITH_KNOTS((3,3),(0.,0.467374455231165),.UNSPECIFIED.)
CURVE()
GEOMETRIC_REPRESENTATION_ITEM()
RATIONAL_B_SPLINE_CURVE((1.,1.15470053837925,1.))
REPRESENTATION_ITEM('')
);
#16=(
BOUNDED_CURVE()
B_SPLINE_CURVE(2,(#484,#485,#486),.UNSPECIFIED.,.F.,.F.)
B_SPLINE_CURVE_WITH_KNOTS((3,3),(0.,0.467374455231166),.UNSPECIFIED.)
CURVE()
GEOMETRIC_REPRESENTATION_ITEM()
RATIONAL_B_SPLINE_CURVE((1.,1.15470053837925,1.))
REPRESENTATION_ITEM('')
);
#17=(
BOUNDED_CURVE()
B_SPLINE_CURVE(2,(#490,#491,#492),.UNSPECIFIED.,.F.,.F.)
B_SPLINE_CURVE_WITH_KNOTS((3,3),(0.,0.467374455231165),.UNSPECIFIED.)
CURVE()
GEOMETRIC_REPRESENTATION_ITEM()
RATIONAL_B_SPLINE_CURVE((1.,1.15470053837925,1.))
REPRESENTATION_ITEM('')
);
#18=(
BOUNDED_CURVE()
B_SPLINE_CURVE(2,(#496,#497,#498),.UNSPECIFIED.,.F.,.F.)
B_SPLINE_CURVE_WITH_KNOTS((3,3),(0.,0.467374455231166),.UNSPECIFIED.)
CURVE()
GEOMETRIC_REPRESENTATION_ITEM()
RATIONAL_B_SPLINE_CURVE((1.,1.15470053837925,1.))
REPRESENTATION_ITEM('')
);
#19=(
BOUNDED_CURVE()
B_SPLINE_CURVE(2,(#502,#503,#504),.UNSPECIFIED.,.F.,.F.)
B_SPLINE_CURVE_WITH_KNOTS((3,3),(0.,0.233687227615583),.UNSPECIFIED.)
CURVE()
GEOMETRIC_REPRESENTATION_ITEM()
RATIONAL_B_SPLINE_CURVE((1.,1.07735026918963,1.07735026918963))
REPRESENTATION_ITEM('')
);
#20=(
BOUNDED_CURVE()
B_SPLINE_CURVE(2,(#507,#508,#509),.UNSPECIFIED.,.F.,.F.)
B_SPLINE_CURVE_WITH_KNOTS((3,3),(0.233687227615583,0.467374455231166),
 .UNSPECIFIED.)
CURVE()
GEOMETRIC_REPRESENTATION_ITEM()
RATIONAL_B_SPLINE_CURVE((1.07735026918963,1.07735026918963,1.))
REPRESENTATION_ITEM('')
);
#21=(
BOUNDED_CURVE()
B_SPLINE_CURVE(2,(#511,#512,#513),.UNSPECIFIED.,.F.,.F.)
B_SPLINE_CURVE_WITH_KNOTS((3,3),(0.,0.467374455231166),.UNSPECIFIED.)
CURVE()
GEOMETRIC_REPRESENTATION_ITEM()
RATIONAL_B_SPLINE_CURVE((1.,1.15470053837926,1.))
REPRESENTATION_ITEM('')
);
#22=CONICAL_SURFACE('',#317,5.46323125,0.785398163397447);
#23=CONICAL_SURFACE('',#335,2.3094010767585,1.0471975511966);
#24=FACE_BOUND('',#87,.T.);
#25=FACE_BOUND('',#92,.T.);
#26=PLANE('',#314);
#27=PLANE('',#319);
#28=PLANE('',#327);
#29=PLANE('',#329);
#30=PLANE('',#330);
#31=PLANE('',#331);
#32=PLANE('',#332);
#33=PLANE('',#333);
#34=PLANE('',#334);
#35=LINE('',#436,#51);
#36=LINE('',#445,#52);
#37=LINE('',#462,#53);
#38=LINE('',#464,#54);
#39=LINE('',#466,#55);
#40=LINE('',#468,#56);
#41=LINE('',#470,#57);
#42=LINE('',#471,#58);
#43=LINE('',#473,#59);
#44=LINE('',#480,#60);
#45=LINE('',#481,#61);
#46=LINE('',#487,#62);
#47=LINE('',#493,#63);
#48=LINE('',#499,#64);
#49=LINE('',#506,#65);
#50=LINE('',#516,#66);
#51=VECTOR('',#358,6.);
#52=VECTOR('',#369,5.46323125);
#53=VECTOR('',#388,10.);
#54=VECTOR('',#389,10.);
#55=VECTOR('',#390,10.);
#56=VECTOR('',#391,10.);
#57=VECTOR('',#392,10.);
#58=VECTOR('',#393,10.);
#59=VECTOR('',#396,9.);
#60=VECTOR('',#399,10.);
#61=VECTOR('',#400,10.);
#62=VECTOR('',#403,10.);
#63=VECTOR('',#406,10.);
#64=VECTOR('',#409,10.);
#65=VECTOR('',#412,10.);
#66=VECTOR('',#417,2.3094010767585);
#67=CYLINDRICAL_SURFACE('',#311,6.);
#68=CYLINDRICAL_SURFACE('',#328,9.);
#69=FACE_OUTER_BOUND('',#84,.T.);
#70=FACE_OUTER_BOUND('',#85,.T.);
#71=FACE_OUTER_BOUND('',#86,.T.);
#72=FACE_OUTER_BOUND('',#88,.T.);
#73=FACE_OUTER_BOUND('',#89,.T.);
#74=FACE_OUTER_BOUND('',#90,.T.);
#75=FACE_OUTER_BOUND('',#91,.T.);
#76=FACE_OUTER_BOUND('',#93,.T.);
#77=FACE_OUTER_BOUND('',#94,.T.);
#78=FACE_OUTER_BOUND('',#95,.T.);
#79=FACE_OUTER_BOUND('',#96,.T.);
#80=FACE_OUTER_BOUND('',#97,.T.);
#81=FACE_OUTER_BOUND('',#98,.T.);
#82=FACE_OUTER_BOUND('',#99,.T.);
#83=FACE_OUTER_BOUND('',#100,.T.);
#84=EDGE_LOOP('',(#187,#188,#189,#190,#191,#192,#193));
#85=EDGE_LOOP('',(#194,#195,#196,#197,#198,#199,#200));
#86=EDGE_LOOP('',(#201,#202));
#87=EDGE_LOOP('',(#203,#204));
#88=EDGE_LOOP('',(#205,#206,#207,#208,#209));
#89=EDGE_LOOP('',(#210));
#90=EDGE_LOOP('',(#211,#212,#213,#214,#215,#216,#217));
#91=EDGE_LOOP('',(#218,#219));
#92=EDGE_LOOP('',(#220,#221,#222,#223,#224,#225));
#93=EDGE_LOOP('',(#226,#227,#228,#229,#230,#231,#232));
#94=EDGE_LOOP('',(#233,#234,#235,#236));
#95=EDGE_LOOP('',(#237,#238,#239,#240));
#96=EDGE_LOOP('',(#241,#242,#243,#244));
#97=EDGE_LOOP('',(#245,#246,#247,#248));
#98=EDGE_LOOP('',(#249,#250,#251,#252,#253));
#99=EDGE_LOOP('',(#254,#255,#256,#257));
#100=EDGE_LOOP('',(#258,#259,#260,#261,#262,#263,#264,#265,#266));
#101=CIRCLE('',#305,6.1);
#102=CIRCLE('',#306,0.1);
#103=CIRCLE('',#307,6.);
#104=CIRCLE('',#308,6.);
#105=CIRCLE('',#309,6.);
#106=CIRCLE('',#310,6.1);
#107=CIRCLE('',#312,6.);
#108=CIRCLE('',#313,6.);
#109=CIRCLE('',#315,9.);
#110=CIRCLE('',#316,9.);
#111=CIRCLE('',#318,4.9264625);
#112=CIRCLE('',#321,9.);
#113=CIRCLE('',#322,9.);
#114=CIRCLE('',#323,1.2);
#115=CIRCLE('',#324,7.8);
#116=CIRCLE('',#325,7.8);
#117=CIRCLE('',#326,9.);
#118=VERTEX_POINT('',#420);
#119=VERTEX_POINT('',#421);
#120=VERTEX_POINT('',#423);
#121=VERTEX_POINT('',#425);
#122=VERTEX_POINT('',#427);
#123=VERTEX_POINT('',#432);
#124=VERTEX_POINT('',#433);
#125=VERTEX_POINT('',#438);
#126=VERTEX_POINT('',#439);
#127=VERTEX_POINT('',#443);
#128=VERTEX_POINT('',#448);
#129=VERTEX_POINT('',#449);
#130=VERTEX_POINT('',#451);
#131=VERTEX_POINT('',#453);
#132=VERTEX_POINT('',#455);
#133=VERTEX_POINT('',#460);
#134=VERTEX_POINT('',#461);
#135=VERTEX_POINT('',#463);
#136=VERTEX_POINT('',#465);
#137=VERTEX_POINT('',#467);
#138=VERTEX_POINT('',#469);
#139=VERTEX_POINT('',#475);
#140=VERTEX_POINT('',#476);
#141=VERTEX_POINT('',#483);
#142=VERTEX_POINT('',#489);
#143=VERTEX_POINT('',#495);
#144=VERTEX_POINT('',#501);
#145=VERTEX_POINT('',#505);
#146=VERTEX_POINT('',#515);
#147=EDGE_CURVE('',#118,#119,#101,.T.);
#148=EDGE_CURVE('',#119,#120,#102,.T.);
#149=EDGE_CURVE('',#120,#121,#103,.T.);
#150=EDGE_CURVE('',#121,#122,#104,.T.);
#151=EDGE_CURVE('',#122,#120,#105,.T.);
#152=EDGE_CURVE('',#119,#118,#106,.T.);
#153=EDGE_CURVE('',#123,#124,#107,.T.);
#154=EDGE_CURVE('',#124,#123,#108,.T.);
#155=EDGE_CURVE('',#124,#122,#35,.T.);
#156=EDGE_CURVE('',#125,#126,#109,.T.);
#157=EDGE_CURVE('',#126,#125,#110,.T.);
#158=EDGE_CURVE('',#127,#127,#111,.T.);
#159=EDGE_CURVE('',#127,#123,#36,.T.);
#160=EDGE_CURVE('',#128,#129,#112,.T.);
#161=EDGE_CURVE('',#129,#130,#113,.T.);
#162=EDGE_CURVE('',#130,#131,#114,.T.);
#163=EDGE_CURVE('',#131,#132,#115,.T.);
#164=EDGE_CURVE('',#132,#131,#116,.T.);
#165=EDGE_CURVE('',#130,#128,#117,.T.);
#166=EDGE_CURVE('',#133,#134,#37,.T.);
#167=EDGE_CURVE('',#134,#135,#38,.T.);
#168=EDGE_CURVE('',#135,#136,#39,.T.);
#169=EDGE_CURVE('',#136,#137,#40,.T.);
#170=EDGE_CURVE('',#137,#138,#41,.T.);
#171=EDGE_CURVE('',#138,#133,#42,.T.);
#172=EDGE_CURVE('',#126,#129,#43,.T.);
#173=EDGE_CURVE('',#139,#140,#15,.T.);
#174=EDGE_CURVE('',#139,#138,#44,.T.);
#175=EDGE_CURVE('',#140,#137,#45,.T.);
#176=EDGE_CURVE('',#141,#139,#16,.T.);
#177=EDGE_CURVE('',#141,#133,#46,.T.);
#178=EDGE_CURVE('',#142,#141,#17,.T.);
#179=EDGE_CURVE('',#142,#134,#47,.T.);
#180=EDGE_CURVE('',#143,#142,#18,.T.);
#181=EDGE_CURVE('',#135,#143,#48,.T.);
#182=EDGE_CURVE('',#140,#144,#19,.T.);
#183=EDGE_CURVE('',#145,#136,#49,.T.);
#184=EDGE_CURVE('',#144,#145,#20,.T.);
#185=EDGE_CURVE('',#145,#143,#21,.T.);
#186=EDGE_CURVE('',#146,#144,#50,.T.);
#187=ORIENTED_EDGE('',*,*,#147,.T.);
#188=ORIENTED_EDGE('',*,*,#148,.T.);
#189=ORIENTED_EDGE('',*,*,#149,.T.);
#190=ORIENTED_EDGE('',*,*,#150,.T.);
#191=ORIENTED_EDGE('',*,*,#151,.T.);
#192=ORIENTED_EDGE('',*,*,#148,.F.);
#193=ORIENTED_EDGE('',*,*,#152,.T.);
#194=ORIENTED_EDGE('',*,*,#153,.F.);
#195=ORIENTED_EDGE('',*,*,#154,.F.);
#196=ORIENTED_EDGE('',*,*,#155,.T.);
#197=ORIENTED_EDGE('',*,*,#150,.F.);
#198=ORIENTED_EDGE('',*,*,#149,.F.);
#199=ORIENTED_EDGE('',*,*,#151,.F.);
#200=ORIENTED_EDGE('',*,*,#155,.F.);
#201=ORIENTED_EDGE('',*,*,#156,.T.);
#202=ORIENTED_EDGE('',*,*,#157,.T.);
#203=ORIENTED_EDGE('',*,*,#147,.F.);
#204=ORIENTED_EDGE('',*,*,#152,.F.);
#205=ORIENTED_EDGE('',*,*,#158,.T.);
#206=ORIENTED_EDGE('',*,*,#159,.T.);
#207=ORIENTED_EDGE('',*,*,#153,.T.);
#208=ORIENTED_EDGE('',*,*,#154,.T.);
#209=ORIENTED_EDGE('',*,*,#159,.F.);
#210=ORIENTED_EDGE('',*,*,#158,.F.);
#211=ORIENTED_EDGE('',*,*,#160,.T.);
#212=ORIENTED_EDGE('',*,*,#161,.T.);
#213=ORIENTED_EDGE('',*,*,#162,.T.);
#214=ORIENTED_EDGE('',*,*,#163,.T.);
#215=ORIENTED_EDGE('',*,*,#164,.T.);
#216=ORIENTED_EDGE('',*,*,#162,.F.);
#217=ORIENTED_EDGE('',*,*,#165,.T.);
#218=ORIENTED_EDGE('',*,*,#164,.F.);
#219=ORIENTED_EDGE('',*,*,#163,.F.);
#220=ORIENTED_EDGE('',*,*,#166,.T.);
#221=ORIENTED_EDGE('',*,*,#167,.T.);
#222=ORIENTED_EDGE('',*,*,#168,.T.);
#223=ORIENTED_EDGE('',*,*,#169,.T.);
#224=ORIENTED_EDGE('',*,*,#170,.T.);
#225=ORIENTED_EDGE('',*,*,#171,.T.);
#226=ORIENTED_EDGE('',*,*,#156,.F.);
#227=ORIENTED_EDGE('',*,*,#157,.F.);
#228=ORIENTED_EDGE('',*,*,#172,.T.);
#229=ORIENTED_EDGE('',*,*,#160,.F.);
#230=ORIENTED_EDGE('',*,*,#165,.F.);
#231=ORIENTED_EDGE('',*,*,#161,.F.);
#232=ORIENTED_EDGE('',*,*,#172,.F.);
#233=ORIENTED_EDGE('',*,*,#173,.F.);
#234=ORIENTED_EDGE('',*,*,#174,.T.);
#235=ORIENTED_EDGE('',*,*,#170,.F.);
#236=ORIENTED_EDGE('',*,*,#175,.F.);
#237=ORIENTED_EDGE('',*,*,#176,.F.);
#238=ORIENTED_EDGE('',*,*,#177,.T.);
#239=ORIENTED_EDGE('',*,*,#171,.F.);
#240=ORIENTED_EDGE('',*,*,#174,.F.);
#241=ORIENTED_EDGE('',*,*,#178,.F.);
#242=ORIENTED_EDGE('',*,*,#179,.T.);
#243=ORIENTED_EDGE('',*,*,#166,.F.);
#244=ORIENTED_EDGE('',*,*,#177,.F.);
#245=ORIENTED_EDGE('',*,*,#180,.F.);
#246=ORIENTED_EDGE('',*,*,#181,.F.);
#247=ORIENTED_EDGE('',*,*,#167,.F.);
#248=ORIENTED_EDGE('',*,*,#179,.F.);
#249=ORIENTED_EDGE('',*,*,#182,.F.);
#250=ORIENTED_EDGE('',*,*,#175,.T.);
#251=ORIENTED_EDGE('',*,*,#169,.F.);
#252=ORIENTED_EDGE('',*,*,#183,.F.);
#253=ORIENTED_EDGE('',*,*,#184,.F.);
#254=ORIENTED_EDGE('',*,*,#185,.F.);
#255=ORIENTED_EDGE('',*,*,#183,.T.);
#256=ORIENTED_EDGE('',*,*,#168,.F.);
#257=ORIENTED_EDGE('',*,*,#181,.T.);
#258=ORIENTED_EDGE('',*,*,#186,.T.);
#259=ORIENTED_EDGE('',*,*,#184,.T.);
#260=ORIENTED_EDGE('',*,*,#185,.T.);
#261=ORIENTED_EDGE('',*,*,#180,.T.);
#262=ORIENTED_EDGE('',*,*,#178,.T.);
#263=ORIENTED_EDGE('',*,*,#176,.T.);
#264=ORIENTED_EDGE('',*,*,#173,.T.);
#265=ORIENTED_EDGE('',*,*,#182,.T.);
#266=ORIENTED_EDGE('',*,*,#186,.F.);
#267=TOROIDAL_SURFACE('',#304,6.1,0.1);
#268=TOROIDAL_SURFACE('',#320,7.8,1.2);
#269=ADVANCED_FACE('',(#69),#267,.F.);
#270=ADVANCED_FACE('',(#70),#67,.T.);
#271=ADVANCED_FACE('',(#71,#24),#26,.T.);
#272=ADVANCED_FACE('',(#72),#22,.T.);
#273=ADVANCED_FACE('',(#73),#27,.T.);
#274=ADVANCED_FACE('',(#74),#268,.T.);
#275=ADVANCED_FACE('',(#75,#25),#28,.T.);
#276=ADVANCED_FACE('',(#76),#68,.T.);
#277=ADVANCED_FACE('',(#77),#29,.F.);
#278=ADVANCED_FACE('',(#78),#30,.F.);
#279=ADVANCED_FACE('',(#79),#31,.F.);
#280=ADVANCED_FACE('',(#80),#32,.F.);
#281=ADVANCED_FACE('',(#81),#33,.F.);
#282=ADVANCED_FACE('',(#82),#34,.F.);
#283=ADVANCED_FACE('',(#83),#23,.F.);
#284=CLOSED_SHELL('',(#269,#270,#271,#272,#273,#274,#275,#276,#277,#278,
#279,#280,#281,#282,#283));
#285=DERIVED_UNIT_ELEMENT(#287,1.);
#286=DERIVED_UNIT_ELEMENT(#522,3.);
#287=(
MASS_UNIT()
NAMED_UNIT(*)
SI_UNIT($,.GRAM.)
);
#288=DERIVED_UNIT((#285,#286));
#289=MEASURE_REPRESENTATION_ITEM('density measure',
POSITIVE_RATIO_MEASURE(7.85),#288);
#290=PROPERTY_DEFINITION_REPRESENTATION(#295,#292);
#291=PROPERTY_DEFINITION_REPRESENTATION(#296,#293);
#292=REPRESENTATION('material name',(#294),#519);
#293=REPRESENTATION('density',(#289),#519);
#294=DESCRIPTIVE_REPRESENTATION_ITEM('Ocel zinkovan\X\E1',
'Ocel zinkovan\X\E1');
#295=PROPERTY_DEFINITION('material property','material name',#529);
#296=PROPERTY_DEFINITION('material property','density of part',#529);
#297=DATE_TIME_ROLE('creation_date');
#298=CC_DESIGN_DATE_AND_TIME_ASSIGNMENT(#299,#297,(#529));
#299=DATE_AND_TIME(#300,#301);
#300=CALENDAR_DATE(2014,3,1);
#301=LOCAL_TIME(0,0,0.,#302);
#302=COORDINATED_UNIVERSAL_TIME_OFFSET(0,0,.BEHIND.);
#303=AXIS2_PLACEMENT_3D('placement',#418,#336,#337);
#304=AXIS2_PLACEMENT_3D('',#419,#338,#339);
#305=AXIS2_PLACEMENT_3D('',#422,#340,#341);
#306=AXIS2_PLACEMENT_3D('',#424,#342,#343);
#307=AXIS2_PLACEMENT_3D('',#426,#344,#345);
#308=AXIS2_PLACEMENT_3D('',#428,#346,#347);
#309=AXIS2_PLACEMENT_3D('',#429,#348,#349);
#310=AXIS2_PLACEMENT_3D('',#430,#350,#351);
#311=AXIS2_PLACEMENT_3D('',#431,#352,#353);
#312=AXIS2_PLACEMENT_3D('',#434,#354,#355);
#313=AXIS2_PLACEMENT_3D('',#435,#356,#357);
#314=AXIS2_PLACEMENT_3D('',#437,#359,#360);
#315=AXIS2_PLACEMENT_3D('',#440,#361,#362);
#316=AXIS2_PLACEMENT_3D('',#441,#363,#364);
#317=AXIS2_PLACEMENT_3D('',#442,#365,#366);
#318=AXIS2_PLACEMENT_3D('',#444,#367,#368);
#319=AXIS2_PLACEMENT_3D('',#446,#370,#371);
#320=AXIS2_PLACEMENT_3D('',#447,#372,#373);
#321=AXIS2_PLACEMENT_3D('',#450,#374,#375);
#322=AXIS2_PLACEMENT_3D('',#452,#376,#377);
#323=AXIS2_PLACEMENT_3D('',#454,#378,#379);
#324=AXIS2_PLACEMENT_3D('',#456,#380,#381);
#325=AXIS2_PLACEMENT_3D('',#457,#382,#383);
#326=AXIS2_PLACEMENT_3D('',#458,#384,#385);
#327=AXIS2_PLACEMENT_3D('',#459,#386,#387);
#328=AXIS2_PLACEMENT_3D('',#472,#394,#395);
#329=AXIS2_PLACEMENT_3D('',#474,#397,#398);
#330=AXIS2_PLACEMENT_3D('',#482,#401,#402);
#331=AXIS2_PLACEMENT_3D('',#488,#404,#405);
#332=AXIS2_PLACEMENT_3D('',#494,#407,#408);
#333=AXIS2_PLACEMENT_3D('',#500,#410,#411);
#334=AXIS2_PLACEMENT_3D('',#510,#413,#414);
#335=AXIS2_PLACEMENT_3D('',#514,#415,#416);
#336=DIRECTION('axis',(0.,0.,1.));
#337=DIRECTION('refdir',(1.,0.,0.));
#338=DIRECTION('center_axis',(1.,3.39869117157264E-17,0.));
#339=DIRECTION('ref_axis',(0.,0.,-1.));
#340=DIRECTION('center_axis',(1.,3.39869117157264E-17,0.));
#341=DIRECTION('ref_axis',(3.39869117157264E-17,-1.,1.22464679914735E-16));
#342=DIRECTION('center_axis',(3.39869117157264E-17,-1.,-1.22464679914735E-16));
#343=DIRECTION('ref_axis',(0.,-1.22464679914735E-16,1.));
#344=DIRECTION('center_axis',(-1.,-3.39869117157264E-17,0.));
#345=DIRECTION('ref_axis',(3.46944695195361E-17,-1.,1.22464679914735E-16));
#346=DIRECTION('center_axis',(-1.,-3.39869117157264E-17,0.));
#347=DIRECTION('ref_axis',(3.46944695195361E-17,-1.,1.22464679914735E-16));
#348=DIRECTION('center_axis',(-1.,-3.39869117157264E-17,0.));
#349=DIRECTION('ref_axis',(3.46944695195361E-17,-1.,1.22464679914735E-16));
#350=DIRECTION('center_axis',(1.,3.39869117157264E-17,0.));
#351=DIRECTION('ref_axis',(3.39869117157264E-17,-1.,1.22464679914735E-16));
#352=DIRECTION('center_axis',(1.,3.39869117157264E-17,0.));
#353=DIRECTION('ref_axis',(0.,1.,0.));
#354=DIRECTION('center_axis',(1.,3.39869117157264E-17,0.));
#355=DIRECTION('ref_axis',(0.,-1.,0.));
#356=DIRECTION('center_axis',(1.,3.39869117157264E-17,0.));
#357=DIRECTION('ref_axis',(0.,-1.,0.));
#358=DIRECTION('',(-1.,-3.39869117157264E-17,0.));
#359=DIRECTION('center_axis',(1.,3.39869117157264E-17,0.));
#360=DIRECTION('ref_axis',(0.,0.,-1.));
#361=DIRECTION('center_axis',(1.,3.39869117157264E-17,0.));
#362=DIRECTION('ref_axis',(0.,1.,0.));
#363=DIRECTION('center_axis',(1.,3.39869117157264E-17,0.));
#364=DIRECTION('ref_axis',(0.,1.,0.));
#365=DIRECTION('center_axis',(-1.,-3.39869117157264E-17,0.));
#366=DIRECTION('ref_axis',(1.53238292867739E-17,-1.,0.));
#367=DIRECTION('center_axis',(-1.,-3.39869117157264E-17,0.));
#368=DIRECTION('ref_axis',(3.39869117157264E-17,-1.,0.));
#369=DIRECTION('',(-0.707106781186548,0.707106781186547,8.65956056235492E-17));
#370=DIRECTION('center_axis',(1.,3.39869117157264E-17,0.));
#371=DIRECTION('ref_axis',(0.,0.,-1.));
#372=DIRECTION('center_axis',(1.,3.39869117157264E-17,0.));
#373=DIRECTION('ref_axis',(0.,0.,-1.));
#374=DIRECTION('center_axis',(-1.,-3.39869117157264E-17,0.));
#375=DIRECTION('ref_axis',(3.08395284618099E-17,-1.,1.22464679914735E-16));
#376=DIRECTION('center_axis',(-1.,-3.39869117157264E-17,0.));
#377=DIRECTION('ref_axis',(3.08395284618099E-17,-1.,1.22464679914735E-16));
#378=DIRECTION('center_axis',(3.39869117157264E-17,-1.,-1.22464679914735E-16));
#379=DIRECTION('ref_axis',(0.,-1.22464679914735E-16,1.));
#380=DIRECTION('center_axis',(1.,3.39869117157264E-17,0.));
#381=DIRECTION('ref_axis',(3.39869117157264E-17,-1.,1.22464679914735E-16));
#382=DIRECTION('center_axis',(1.,3.39869117157264E-17,0.));
#383=DIRECTION('ref_axis',(3.39869117157264E-17,-1.,1.22464679914735E-16));
#384=DIRECTION('center_axis',(-1.,-3.39869117157264E-17,0.));
#385=DIRECTION('ref_axis',(3.08395284618099E-17,-1.,1.22464679914735E-16));
#386=DIRECTION('center_axis',(-1.,-3.39869117157264E-17,0.));
#387=DIRECTION('ref_axis',(0.,0.,1.));
#388=DIRECTION('',(-2.8593058836455E-32,8.41296175292809E-16,1.));
#389=DIRECTION('',(2.9433528941998E-17,-0.866025403784438,0.500000000000001));
#390=DIRECTION('',(2.94335289419981E-17,-0.866025403784439,-0.5));
#391=DIRECTION('',(4.08472269092214E-33,-1.20185167898973E-16,-1.));
#392=DIRECTION('',(-2.9433528941998E-17,0.866025403784439,-0.5));
#393=DIRECTION('',(-2.94335289419981E-17,0.866025403784439,0.5));
#394=DIRECTION('center_axis',(1.,3.39869117157264E-17,0.));
#395=DIRECTION('ref_axis',(0.,1.,0.));
#396=DIRECTION('',(-1.,-3.39869117157264E-17,0.));
#397=DIRECTION('center_axis',(1.69934558578632E-17,-0.5,-0.866025403784439));
#398=DIRECTION('ref_axis',(-1.,0.,-1.96223526279987E-17));
#399=DIRECTION('',(-1.,-3.39869117157264E-17,0.));
#400=DIRECTION('',(-1.,-3.39869117157264E-17,0.));
#401=DIRECTION('center_axis',(-1.69934558578632E-17,0.5,-0.866025403784439));
#402=DIRECTION('ref_axis',(-1.,0.,1.96223526279987E-17));
#403=DIRECTION('',(-1.,-3.39869117157264E-17,0.));
#404=DIRECTION('center_axis',(-3.39869117157264E-17,1.,-8.41296175292809E-16));
#405=DIRECTION('ref_axis',(0.,8.41296175292809E-16,1.));
#406=DIRECTION('',(-1.,-3.39869117157264E-17,0.));
#407=DIRECTION('center_axis',(-1.69934558578632E-17,0.500000000000001,0.866025403784438));
#408=DIRECTION('ref_axis',(1.,0.,1.96223526279987E-17));
#409=DIRECTION('',(1.,3.39869117157264E-17,0.));
#410=DIRECTION('center_axis',(3.39869117157264E-17,-1.,1.20185167898973E-16));
#411=DIRECTION('ref_axis',(0.,-1.20185167898973E-16,-1.));
#412=DIRECTION('',(-1.,-3.39869117157264E-17,0.));
#413=DIRECTION('center_axis',(1.69934558578632E-17,-0.5,0.866025403784439));
#414=DIRECTION('ref_axis',(1.,0.,-1.96223526279987E-17));
#415=DIRECTION('center_axis',(-1.,-3.39869117157264E-17,0.));
#416=DIRECTION('ref_axis',(0.,1.,0.));
#417=DIRECTION('',(-0.5,-0.866025403784438,-1.06057523872491E-16));
#418=CARTESIAN_POINT('',(0.,0.,0.));
#419=CARTESIAN_POINT('Origin',(0.100000000000002,-6.76339543142956E-16,
0.));
#420=CARTESIAN_POINT('',(2.2733344091809E-15,6.1,0.));
#421=CARTESIAN_POINT('',(2.48065457064683E-15,-1.42677278179441E-15,6.1));
#422=CARTESIAN_POINT('Origin',(2.48065457064683E-15,-6.79738234314528E-16,
0.));
#423=CARTESIAN_POINT('',(0.100000000000002,-1.41112762263137E-15,6.));
#424=CARTESIAN_POINT('Origin',(0.100000000000002,-1.42337409062284E-15,
6.1));
#425=CARTESIAN_POINT('',(0.100000000000002,6.,-1.46957615897682E-15));
#426=CARTESIAN_POINT('Origin',(0.100000000000002,-6.76339543142956E-16,
0.));
#427=CARTESIAN_POINT('',(0.100000000000002,-6.,-7.34788079488412E-16));
#428=CARTESIAN_POINT('Origin',(0.100000000000002,-6.76339543142956E-16,
0.));
#429=CARTESIAN_POINT('Origin',(0.100000000000002,-6.76339543142956E-16,
0.));
#430=CARTESIAN_POINT('Origin',(2.48065457064683E-15,-6.79738234314528E-16,
0.));
#431=CARTESIAN_POINT('Origin',(12.625,-2.50653473903482E-16,0.));
#432=CARTESIAN_POINT('',(18.9264625,6.,7.34788079488412E-16));
#433=CARTESIAN_POINT('',(18.9264625,-6.,-7.34788079488412E-16));
#434=CARTESIAN_POINT('Origin',(18.9264625,-3.64862242360217E-17,0.));
#435=CARTESIAN_POINT('Origin',(18.9264625,-3.64862242360217E-17,0.));
#436=CARTESIAN_POINT('',(12.625,-6.,-7.34788079488412E-16));
#437=CARTESIAN_POINT('Origin',(2.22044604925031E-15,7.5,0.));
#438=CARTESIAN_POINT('',(2.22044604925031E-15,9.,0.));
#439=CARTESIAN_POINT('',(2.77555756156289E-15,-9.,-1.10218211923262E-15));
#440=CARTESIAN_POINT('Origin',(2.22044604925031E-15,-6.79738234314528E-16,
0.));
#441=CARTESIAN_POINT('Origin',(2.22044604925031E-15,-6.79738234314528E-16,
0.));
#442=CARTESIAN_POINT('Origin',(19.46323125,-1.82431121180109E-17,0.));
#443=CARTESIAN_POINT('',(20.,4.9264625,-6.03317653174447E-16));
#444=CARTESIAN_POINT('Origin',(20.,7.70371977754894E-33,0.));
#445=CARTESIAN_POINT('',(19.46323125,5.46323125,6.69052866331429E-16));
#446=CARTESIAN_POINT('Origin',(20.,3.,0.));
#447=CARTESIAN_POINT('Origin',(-5.8,-8.76862322265742E-16,0.));
#448=CARTESIAN_POINT('',(-5.8,9.,-2.20436423846524E-15));
#449=CARTESIAN_POINT('',(-5.8,-9.,-1.10218211923262E-15));
#450=CARTESIAN_POINT('Origin',(-5.8,-8.76862322265742E-16,0.));
#451=CARTESIAN_POINT('',(-5.8,-1.97904444149836E-15,9.));
#452=CARTESIAN_POINT('Origin',(-5.8,-8.76862322265742E-16,0.));
#453=CARTESIAN_POINT('',(-7.,-1.87287111965955E-15,7.8));
#454=CARTESIAN_POINT('Origin',(-5.8,-1.83208682560068E-15,7.8));
#455=CARTESIAN_POINT('',(-7.,7.8,0.));
#456=CARTESIAN_POINT('Origin',(-7.,-9.17646616324614E-16,0.));
#457=CARTESIAN_POINT('Origin',(-7.,-9.17646616324614E-16,0.));
#458=CARTESIAN_POINT('Origin',(-5.8,-8.76862322265742E-16,0.));
#459=CARTESIAN_POINT('Origin',(-7.,6.8094010767585,0.));
#460=CARTESIAN_POINT('',(-7.,4.,-2.30940107675851));
#461=CARTESIAN_POINT('',(-7.,4.,2.3094010767585));
#462=CARTESIAN_POINT('',(-7.,4.,1.15470053837925));
#463=CARTESIAN_POINT('',(-7.,-3.52006489004663E-16,4.61880215351701));
#464=CARTESIAN_POINT('',(-7.,1.,4.04145188432738));
#465=CARTESIAN_POINT('',(-7.,-4.,2.3094010767585));
#466=CARTESIAN_POINT('',(-7.,-3.,2.88675134594813));
#467=CARTESIAN_POINT('',(-7.,-4.,-2.3094010767585));
#468=CARTESIAN_POINT('',(-7.,-4.,-1.15470053837925));
#469=CARTESIAN_POINT('',(-7.,-1.47467839056574E-15,-4.61880215351701));
#470=CARTESIAN_POINT('',(-7.,-1.,-4.04145188432738));
#471=CARTESIAN_POINT('',(-7.,3.,-2.88675134594813));
#472=CARTESIAN_POINT('Origin',(-3.5,-7.98692425319571E-16,0.));
#473=CARTESIAN_POINT('',(-3.5,-9.,-1.10218211923262E-15));
#474=CARTESIAN_POINT('Origin',(-7.,-1.47467839056574E-15,-4.61880215351701));
#475=CARTESIAN_POINT('',(-2.,-9.40288466046525E-16,-4.61880215351701));
#476=CARTESIAN_POINT('',(-2.,-4.,-2.3094010767585));
#477=CARTESIAN_POINT('Ctrl Pts',(-2.,-1.07227057092371E-14,-4.618802153517));
#478=CARTESIAN_POINT('Ctrl Pts',(-1.33333333333333,-2.,-3.46410161513776));
#479=CARTESIAN_POINT('Ctrl Pts',(-2.,-3.99999999999999,-2.30940107675851));
#480=CARTESIAN_POINT('',(-4.5,-1.11022302462516E-15,-4.61880215351701));
#481=CARTESIAN_POINT('',(-4.5,-4.,-2.3094010767585));
#482=CARTESIAN_POINT('Origin',(-7.,4.,-2.30940107675851));
#483=CARTESIAN_POINT('',(-2.,4.,-2.30940107675851));
#484=CARTESIAN_POINT('Ctrl Pts',(-2.,3.99999999999999,-2.30940107675851));
#485=CARTESIAN_POINT('Ctrl Pts',(-1.33333333333333,2.,-3.46410161513776));
#486=CARTESIAN_POINT('Ctrl Pts',(-2.,5.09797239167133E-15,-4.618802153517));
#487=CARTESIAN_POINT('',(-4.5,4.,-2.30940107675851));
#488=CARTESIAN_POINT('Origin',(-7.,4.,2.3094010767585));
#489=CARTESIAN_POINT('',(-2.,4.,2.3094010767585));
#490=CARTESIAN_POINT('Ctrl Pts',(-2.,4.,2.30940107675849));
#491=CARTESIAN_POINT('Ctrl Pts',(-1.33333333333333,4.,-2.01447322793044E-15));
#492=CARTESIAN_POINT('Ctrl Pts',(-2.,4.,-2.3094010767585));
#493=CARTESIAN_POINT('',(-4.5,4.,2.3094010767585));
#494=CARTESIAN_POINT('Origin',(-7.,-2.37908382010085E-16,4.61880215351701));
#495=CARTESIAN_POINT('',(-2.,1.28015758320379E-15,4.61880215351701));
#496=CARTESIAN_POINT('Ctrl Pts',(-2.,7.59597419707793E-15,4.618802153517));
#497=CARTESIAN_POINT('Ctrl Pts',(-1.33333333333333,2.,3.46410161513775));
#498=CARTESIAN_POINT('Ctrl Pts',(-2.,4.,2.3094010767585));
#499=CARTESIAN_POINT('',(-4.5,1.11022302462516E-15,4.61880215351701));
#500=CARTESIAN_POINT('Origin',(-7.,-4.,-2.3094010767585));
#501=CARTESIAN_POINT('',(-1.64273441009184,-4.,-5.66964546636757E-16));
#502=CARTESIAN_POINT('Ctrl Pts',(-2.,-4.,-2.3094010767585));
#503=CARTESIAN_POINT('Ctrl Pts',(-1.64273441009184,-4.,-1.07179676972449));
#504=CARTESIAN_POINT('Ctrl Pts',(-1.64273441009184,-4.,-6.44070373614572E-16));
#505=CARTESIAN_POINT('',(-2.,-4.,2.3094010767585));
#506=CARTESIAN_POINT('',(-4.5,-4.,2.3094010767585));
#507=CARTESIAN_POINT('Ctrl Pts',(-1.64273441009184,-4.,-6.44070373614572E-16));
#508=CARTESIAN_POINT('Ctrl Pts',(-1.64273441009184,-4.,1.07179676972449));
#509=CARTESIAN_POINT('Ctrl Pts',(-2.,-4.,2.3094010767585));
#510=CARTESIAN_POINT('Origin',(-7.,-4.,2.3094010767585));
#511=CARTESIAN_POINT('Ctrl Pts',(-2.,-4.,2.30940107675851));
#512=CARTESIAN_POINT('Ctrl Pts',(-1.33333333333333,-2.,3.46410161513776));
#513=CARTESIAN_POINT('Ctrl Pts',(-2.,-7.11448087920538E-15,4.618802153517));
#514=CARTESIAN_POINT('Origin',(-0.666666666666664,-7.02396175458346E-16,
0.));
#515=CARTESIAN_POINT('',(0.666666666666671,-6.57080293170711E-16,0.));
#516=CARTESIAN_POINT('',(-0.666666666666664,-2.3094010767585,-2.82820063659975E-16));
#517=UNCERTAINTY_MEASURE_WITH_UNIT(LENGTH_MEASURE(0.01),#521,
'DISTANCE_ACCURACY_VALUE',
'Maximum model space distance between geometric entities at asserted c
onnectivities');
#518=UNCERTAINTY_MEASURE_WITH_UNIT(LENGTH_MEASURE(0.01),#521,
'DISTANCE_ACCURACY_VALUE',
'Maximum model space distance between geometric entities at asserted c
onnectivities');
#519=(
GEOMETRIC_REPRESENTATION_CONTEXT(3)
GLOBAL_UNCERTAINTY_ASSIGNED_CONTEXT((#517))
GLOBAL_UNIT_ASSIGNED_CONTEXT((#521,#523,#524))
REPRESENTATION_CONTEXT('','3D')
);
#520=(
GEOMETRIC_REPRESENTATION_CONTEXT(3)
GLOBAL_UNCERTAINTY_ASSIGNED_CONTEXT((#518))
GLOBAL_UNIT_ASSIGNED_CONTEXT((#521,#523,#524))
REPRESENTATION_CONTEXT('','3D')
);
#521=(
LENGTH_UNIT()
NAMED_UNIT(*)
SI_UNIT(.MILLI.,.METRE.)
);
#522=(
LENGTH_UNIT()
NAMED_UNIT(*)
SI_UNIT(.CENTI.,.METRE.)
);
#523=(
NAMED_UNIT(*)
PLANE_ANGLE_UNIT()
SI_UNIT($,.RADIAN.)
);
#524=(
NAMED_UNIT(*)
SI_UNIT($,.STERADIAN.)
SOLID_ANGLE_UNIT()
);
#525=SHAPE_DEFINITION_REPRESENTATION(#526,#527);
#526=PRODUCT_DEFINITION_SHAPE('',$,#529);
#527=SHAPE_REPRESENTATION('',(#303),#519);
#528=DESIGN_CONTEXT('part definition',#533,'design');
#529=PRODUCT_DEFINITION('201220','201220',#530,#528);
#530=PRODUCT_DEFINITION_FORMATION('',$,#535);
#531=PRODUCT_RELATED_PRODUCT_CATEGORY('201220','201220',(#535));
#532=APPLICATION_PROTOCOL_DEFINITION('international standard',
'ap203_configuration_controlled_3d_design_of_mechanical_parts_and_asse
mblies_mim_lf',2004,#533);
#533=APPLICATION_CONTEXT(
'Configuration Controlled 3D Design of Mechanical Parts and Assemblies');
#534=MECHANICAL_CONTEXT('part definition',#533,'mechanical');
#535=PRODUCT('201220','201220','\X2\015A\X0\ruba DIN 7984',(#534));
#536=PRESENTATION_STYLE_ASSIGNMENT((#537));
#537=SURFACE_STYLE_USAGE(.BOTH.,#540);
#538=SURFACE_STYLE_RENDERING_WITH_PROPERTIES($,#544,(#539));
#539=SURFACE_STYLE_TRANSPARENT(0.);
#540=SURFACE_SIDE_STYLE('',(#541,#538));
#541=SURFACE_STYLE_FILL_AREA(#542);
#542=FILL_AREA_STYLE('',(#543));
#543=FILL_AREA_STYLE_COLOUR('',#544);
#544=COLOUR_RGB('',0.63921568627451,0.63921568627451,0.662745098039216);
ENDSEC;
END-ISO-10303-21;
