ISO-10303-21;
HEADER;
/* Generated by software containing ST-Developer
 * from STEP Tools, Inc. (www.steptools.com) 
 */

FILE_DESCRIPTION(
/* description */ ('\X2\015A\X0\ruba DIN 7984'),
/* implementation_level */ '2;1');

FILE_NAME(
/* name */ 'C:\\Users\\aluteckkpl_am\\Desktop\\\X2\015A\X0\ruby stp ig
s\\200860.stp',
/* time_stamp */ '2023-01-20T07:57:24+01:00',
/* author */ ('aluteckkpl_am'),
/* organization */ (''),
/* preprocessor_version */ 'ST-DEVELOPER v18.1',
/* originating_system */ 'Autodesk Inventor 2021',
/* authorisation */ '');

FILE_SCHEMA (('CONFIG_CONTROL_DESIGN'));
ENDSEC;

DATA;
#10=MECHANICAL_DESIGN_GEOMETRIC_PRESENTATION_REPRESENTATION('',(#13),#520);
#11=SHAPE_REPRESENTATION_RELATIONSHIP('SRR','None',#527,#12);
#12=ADVANCED_BREP_SHAPE_REPRESENTATION('',(#14),#519);
#13=STYLED_ITEM('',(#536),#14);
#14=MANIFOLD_SOLID_BREP('Solid1',#284);
#15=(
BOUNDED_CURVE()
B_SPLINE_CURVE(2,(#477,#478,#479),.UNSPECIFIED.,.F.,.F.)
B_SPLINE_CURVE_WITH_KNOTS((3,3),(0.,0.29210903451948),.UNSPECIFIED.)
CURVE()
GEOMETRIC_REPRESENTATION_ITEM()
RATIONAL_B_SPLINE_CURVE((1.,1.15470053837925,1.))
REPRESENTATION_ITEM('')
);
#16=(
BOUNDED_CURVE()
B_SPLINE_CURVE(2,(#484,#485,#486),.UNSPECIFIED.,.F.,.F.)
B_SPLINE_CURVE_WITH_KNOTS((3,3),(0.,0.292109034519479),.UNSPECIFIED.)
CURVE()
GEOMETRIC_REPRESENTATION_ITEM()
RATIONAL_B_SPLINE_CURVE((1.,1.15470053837925,1.))
REPRESENTATION_ITEM('')
);
#17=(
BOUNDED_CURVE()
B_SPLINE_CURVE(2,(#490,#491,#492),.UNSPECIFIED.,.F.,.F.)
B_SPLINE_CURVE_WITH_KNOTS((3,3),(0.,0.29210903451948),.UNSPECIFIED.)
CURVE()
GEOMETRIC_REPRESENTATION_ITEM()
RATIONAL_B_SPLINE_CURVE((1.,1.15470053837925,1.))
REPRESENTATION_ITEM('')
);
#18=(
BOUNDED_CURVE()
B_SPLINE_CURVE(2,(#496,#497,#498),.UNSPECIFIED.,.F.,.F.)
B_SPLINE_CURVE_WITH_KNOTS((3,3),(0.,0.29210903451948),.UNSPECIFIED.)
CURVE()
GEOMETRIC_REPRESENTATION_ITEM()
RATIONAL_B_SPLINE_CURVE((1.,1.15470053837925,1.))
REPRESENTATION_ITEM('')
);
#19=(
BOUNDED_CURVE()
B_SPLINE_CURVE(2,(#502,#503,#504),.UNSPECIFIED.,.F.,.F.)
B_SPLINE_CURVE_WITH_KNOTS((3,3),(0.,0.14605451725974),.UNSPECIFIED.)
CURVE()
GEOMETRIC_REPRESENTATION_ITEM()
RATIONAL_B_SPLINE_CURVE((1.,1.07735026918963,1.07735026918963))
REPRESENTATION_ITEM('')
);
#20=(
BOUNDED_CURVE()
B_SPLINE_CURVE(2,(#507,#508,#509),.UNSPECIFIED.,.F.,.F.)
B_SPLINE_CURVE_WITH_KNOTS((3,3),(0.14605451725974,0.29210903451948),
 .UNSPECIFIED.)
CURVE()
GEOMETRIC_REPRESENTATION_ITEM()
RATIONAL_B_SPLINE_CURVE((1.07735026918963,1.07735026918963,1.))
REPRESENTATION_ITEM('')
);
#21=(
BOUNDED_CURVE()
B_SPLINE_CURVE(2,(#511,#512,#513),.UNSPECIFIED.,.F.,.F.)
B_SPLINE_CURVE_WITH_KNOTS((3,3),(0.,0.29210903451948),.UNSPECIFIED.)
CURVE()
GEOMETRIC_REPRESENTATION_ITEM()
RATIONAL_B_SPLINE_CURVE((1.,1.15470053837925,1.))
REPRESENTATION_ITEM('')
);
#22=CONICAL_SURFACE('',#317,3.61659375,0.785398163397448);
#23=CONICAL_SURFACE('',#335,1.44337567297406,1.0471975511966);
#24=FACE_BOUND('',#87,.T.);
#25=FACE_BOUND('',#92,.T.);
#26=PLANE('',#314);
#27=PLANE('',#319);
#28=PLANE('',#327);
#29=PLANE('',#329);
#30=PLANE('',#330);
#31=PLANE('',#331);
#32=PLANE('',#332);
#33=PLANE('',#333);
#34=PLANE('',#334);
#35=LINE('',#436,#51);
#36=LINE('',#445,#52);
#37=LINE('',#462,#53);
#38=LINE('',#464,#54);
#39=LINE('',#466,#55);
#40=LINE('',#468,#56);
#41=LINE('',#470,#57);
#42=LINE('',#471,#58);
#43=LINE('',#473,#59);
#44=LINE('',#480,#60);
#45=LINE('',#481,#61);
#46=LINE('',#487,#62);
#47=LINE('',#493,#63);
#48=LINE('',#499,#64);
#49=LINE('',#506,#65);
#50=LINE('',#516,#66);
#51=VECTOR('',#358,4.);
#52=VECTOR('',#369,3.61659375);
#53=VECTOR('',#388,10.);
#54=VECTOR('',#389,10.);
#55=VECTOR('',#390,10.);
#56=VECTOR('',#391,10.);
#57=VECTOR('',#392,10.);
#58=VECTOR('',#393,10.);
#59=VECTOR('',#396,6.5);
#60=VECTOR('',#399,10.);
#61=VECTOR('',#400,10.);
#62=VECTOR('',#403,10.);
#63=VECTOR('',#406,10.);
#64=VECTOR('',#409,10.);
#65=VECTOR('',#412,10.);
#66=VECTOR('',#417,1.44337567297406);
#67=CYLINDRICAL_SURFACE('',#311,4.);
#68=CYLINDRICAL_SURFACE('',#328,6.5);
#69=FACE_OUTER_BOUND('',#84,.T.);
#70=FACE_OUTER_BOUND('',#85,.T.);
#71=FACE_OUTER_BOUND('',#86,.T.);
#72=FACE_OUTER_BOUND('',#88,.T.);
#73=FACE_OUTER_BOUND('',#89,.T.);
#74=FACE_OUTER_BOUND('',#90,.T.);
#75=FACE_OUTER_BOUND('',#91,.T.);
#76=FACE_OUTER_BOUND('',#93,.T.);
#77=FACE_OUTER_BOUND('',#94,.T.);
#78=FACE_OUTER_BOUND('',#95,.T.);
#79=FACE_OUTER_BOUND('',#96,.T.);
#80=FACE_OUTER_BOUND('',#97,.T.);
#81=FACE_OUTER_BOUND('',#98,.T.);
#82=FACE_OUTER_BOUND('',#99,.T.);
#83=FACE_OUTER_BOUND('',#100,.T.);
#84=EDGE_LOOP('',(#187,#188,#189,#190,#191,#192,#193));
#85=EDGE_LOOP('',(#194,#195,#196,#197,#198,#199,#200));
#86=EDGE_LOOP('',(#201,#202));
#87=EDGE_LOOP('',(#203,#204));
#88=EDGE_LOOP('',(#205,#206,#207,#208,#209));
#89=EDGE_LOOP('',(#210));
#90=EDGE_LOOP('',(#211,#212,#213,#214,#215,#216,#217));
#91=EDGE_LOOP('',(#218,#219));
#92=EDGE_LOOP('',(#220,#221,#222,#223,#224,#225));
#93=EDGE_LOOP('',(#226,#227,#228,#229,#230,#231,#232));
#94=EDGE_LOOP('',(#233,#234,#235,#236));
#95=EDGE_LOOP('',(#237,#238,#239,#240));
#96=EDGE_LOOP('',(#241,#242,#243,#244));
#97=EDGE_LOOP('',(#245,#246,#247,#248));
#98=EDGE_LOOP('',(#249,#250,#251,#252,#253));
#99=EDGE_LOOP('',(#254,#255,#256,#257));
#100=EDGE_LOOP('',(#258,#259,#260,#261,#262,#263,#264,#265,#266));
#101=CIRCLE('',#305,4.1);
#102=CIRCLE('',#306,0.1);
#103=CIRCLE('',#307,4.);
#104=CIRCLE('',#308,4.);
#105=CIRCLE('',#309,4.);
#106=CIRCLE('',#310,4.1);
#107=CIRCLE('',#312,4.);
#108=CIRCLE('',#313,4.);
#109=CIRCLE('',#315,6.5);
#110=CIRCLE('',#316,6.5);
#111=CIRCLE('',#318,3.2331875);
#112=CIRCLE('',#321,6.5);
#113=CIRCLE('',#322,6.5);
#114=CIRCLE('',#323,0.8);
#115=CIRCLE('',#324,5.7);
#116=CIRCLE('',#325,5.7);
#117=CIRCLE('',#326,6.5);
#118=VERTEX_POINT('',#420);
#119=VERTEX_POINT('',#421);
#120=VERTEX_POINT('',#423);
#121=VERTEX_POINT('',#425);
#122=VERTEX_POINT('',#427);
#123=VERTEX_POINT('',#432);
#124=VERTEX_POINT('',#433);
#125=VERTEX_POINT('',#438);
#126=VERTEX_POINT('',#439);
#127=VERTEX_POINT('',#443);
#128=VERTEX_POINT('',#448);
#129=VERTEX_POINT('',#449);
#130=VERTEX_POINT('',#451);
#131=VERTEX_POINT('',#453);
#132=VERTEX_POINT('',#455);
#133=VERTEX_POINT('',#460);
#134=VERTEX_POINT('',#461);
#135=VERTEX_POINT('',#463);
#136=VERTEX_POINT('',#465);
#137=VERTEX_POINT('',#467);
#138=VERTEX_POINT('',#469);
#139=VERTEX_POINT('',#475);
#140=VERTEX_POINT('',#476);
#141=VERTEX_POINT('',#483);
#142=VERTEX_POINT('',#489);
#143=VERTEX_POINT('',#495);
#144=VERTEX_POINT('',#501);
#145=VERTEX_POINT('',#505);
#146=VERTEX_POINT('',#515);
#147=EDGE_CURVE('',#118,#119,#101,.T.);
#148=EDGE_CURVE('',#119,#120,#102,.T.);
#149=EDGE_CURVE('',#120,#121,#103,.T.);
#150=EDGE_CURVE('',#121,#122,#104,.T.);
#151=EDGE_CURVE('',#122,#120,#105,.T.);
#152=EDGE_CURVE('',#119,#118,#106,.T.);
#153=EDGE_CURVE('',#123,#124,#107,.T.);
#154=EDGE_CURVE('',#124,#123,#108,.T.);
#155=EDGE_CURVE('',#124,#122,#35,.T.);
#156=EDGE_CURVE('',#125,#126,#109,.T.);
#157=EDGE_CURVE('',#126,#125,#110,.T.);
#158=EDGE_CURVE('',#127,#127,#111,.T.);
#159=EDGE_CURVE('',#127,#123,#36,.T.);
#160=EDGE_CURVE('',#128,#129,#112,.T.);
#161=EDGE_CURVE('',#129,#130,#113,.T.);
#162=EDGE_CURVE('',#130,#131,#114,.T.);
#163=EDGE_CURVE('',#131,#132,#115,.T.);
#164=EDGE_CURVE('',#132,#131,#116,.T.);
#165=EDGE_CURVE('',#130,#128,#117,.T.);
#166=EDGE_CURVE('',#133,#134,#37,.T.);
#167=EDGE_CURVE('',#134,#135,#38,.T.);
#168=EDGE_CURVE('',#135,#136,#39,.T.);
#169=EDGE_CURVE('',#136,#137,#40,.T.);
#170=EDGE_CURVE('',#137,#138,#41,.T.);
#171=EDGE_CURVE('',#138,#133,#42,.T.);
#172=EDGE_CURVE('',#126,#129,#43,.T.);
#173=EDGE_CURVE('',#139,#140,#15,.T.);
#174=EDGE_CURVE('',#139,#138,#44,.T.);
#175=EDGE_CURVE('',#140,#137,#45,.T.);
#176=EDGE_CURVE('',#141,#139,#16,.T.);
#177=EDGE_CURVE('',#141,#133,#46,.T.);
#178=EDGE_CURVE('',#142,#141,#17,.T.);
#179=EDGE_CURVE('',#142,#134,#47,.T.);
#180=EDGE_CURVE('',#143,#142,#18,.T.);
#181=EDGE_CURVE('',#135,#143,#48,.T.);
#182=EDGE_CURVE('',#140,#144,#19,.T.);
#183=EDGE_CURVE('',#145,#136,#49,.T.);
#184=EDGE_CURVE('',#144,#145,#20,.T.);
#185=EDGE_CURVE('',#145,#143,#21,.T.);
#186=EDGE_CURVE('',#146,#144,#50,.T.);
#187=ORIENTED_EDGE('',*,*,#147,.T.);
#188=ORIENTED_EDGE('',*,*,#148,.T.);
#189=ORIENTED_EDGE('',*,*,#149,.T.);
#190=ORIENTED_EDGE('',*,*,#150,.T.);
#191=ORIENTED_EDGE('',*,*,#151,.T.);
#192=ORIENTED_EDGE('',*,*,#148,.F.);
#193=ORIENTED_EDGE('',*,*,#152,.T.);
#194=ORIENTED_EDGE('',*,*,#153,.F.);
#195=ORIENTED_EDGE('',*,*,#154,.F.);
#196=ORIENTED_EDGE('',*,*,#155,.T.);
#197=ORIENTED_EDGE('',*,*,#150,.F.);
#198=ORIENTED_EDGE('',*,*,#149,.F.);
#199=ORIENTED_EDGE('',*,*,#151,.F.);
#200=ORIENTED_EDGE('',*,*,#155,.F.);
#201=ORIENTED_EDGE('',*,*,#156,.T.);
#202=ORIENTED_EDGE('',*,*,#157,.T.);
#203=ORIENTED_EDGE('',*,*,#147,.F.);
#204=ORIENTED_EDGE('',*,*,#152,.F.);
#205=ORIENTED_EDGE('',*,*,#158,.T.);
#206=ORIENTED_EDGE('',*,*,#159,.T.);
#207=ORIENTED_EDGE('',*,*,#153,.T.);
#208=ORIENTED_EDGE('',*,*,#154,.T.);
#209=ORIENTED_EDGE('',*,*,#159,.F.);
#210=ORIENTED_EDGE('',*,*,#158,.F.);
#211=ORIENTED_EDGE('',*,*,#160,.T.);
#212=ORIENTED_EDGE('',*,*,#161,.T.);
#213=ORIENTED_EDGE('',*,*,#162,.T.);
#214=ORIENTED_EDGE('',*,*,#163,.T.);
#215=ORIENTED_EDGE('',*,*,#164,.T.);
#216=ORIENTED_EDGE('',*,*,#162,.F.);
#217=ORIENTED_EDGE('',*,*,#165,.T.);
#218=ORIENTED_EDGE('',*,*,#164,.F.);
#219=ORIENTED_EDGE('',*,*,#163,.F.);
#220=ORIENTED_EDGE('',*,*,#166,.T.);
#221=ORIENTED_EDGE('',*,*,#167,.T.);
#222=ORIENTED_EDGE('',*,*,#168,.T.);
#223=ORIENTED_EDGE('',*,*,#169,.T.);
#224=ORIENTED_EDGE('',*,*,#170,.T.);
#225=ORIENTED_EDGE('',*,*,#171,.T.);
#226=ORIENTED_EDGE('',*,*,#156,.F.);
#227=ORIENTED_EDGE('',*,*,#157,.F.);
#228=ORIENTED_EDGE('',*,*,#172,.T.);
#229=ORIENTED_EDGE('',*,*,#160,.F.);
#230=ORIENTED_EDGE('',*,*,#165,.F.);
#231=ORIENTED_EDGE('',*,*,#161,.F.);
#232=ORIENTED_EDGE('',*,*,#172,.F.);
#233=ORIENTED_EDGE('',*,*,#173,.F.);
#234=ORIENTED_EDGE('',*,*,#174,.T.);
#235=ORIENTED_EDGE('',*,*,#170,.F.);
#236=ORIENTED_EDGE('',*,*,#175,.F.);
#237=ORIENTED_EDGE('',*,*,#176,.F.);
#238=ORIENTED_EDGE('',*,*,#177,.T.);
#239=ORIENTED_EDGE('',*,*,#171,.F.);
#240=ORIENTED_EDGE('',*,*,#174,.F.);
#241=ORIENTED_EDGE('',*,*,#178,.F.);
#242=ORIENTED_EDGE('',*,*,#179,.T.);
#243=ORIENTED_EDGE('',*,*,#166,.F.);
#244=ORIENTED_EDGE('',*,*,#177,.F.);
#245=ORIENTED_EDGE('',*,*,#180,.F.);
#246=ORIENTED_EDGE('',*,*,#181,.F.);
#247=ORIENTED_EDGE('',*,*,#167,.F.);
#248=ORIENTED_EDGE('',*,*,#179,.F.);
#249=ORIENTED_EDGE('',*,*,#182,.F.);
#250=ORIENTED_EDGE('',*,*,#175,.T.);
#251=ORIENTED_EDGE('',*,*,#169,.F.);
#252=ORIENTED_EDGE('',*,*,#183,.F.);
#253=ORIENTED_EDGE('',*,*,#184,.F.);
#254=ORIENTED_EDGE('',*,*,#185,.F.);
#255=ORIENTED_EDGE('',*,*,#183,.T.);
#256=ORIENTED_EDGE('',*,*,#168,.F.);
#257=ORIENTED_EDGE('',*,*,#181,.T.);
#258=ORIENTED_EDGE('',*,*,#186,.T.);
#259=ORIENTED_EDGE('',*,*,#184,.T.);
#260=ORIENTED_EDGE('',*,*,#185,.T.);
#261=ORIENTED_EDGE('',*,*,#180,.T.);
#262=ORIENTED_EDGE('',*,*,#178,.T.);
#263=ORIENTED_EDGE('',*,*,#176,.T.);
#264=ORIENTED_EDGE('',*,*,#173,.T.);
#265=ORIENTED_EDGE('',*,*,#182,.T.);
#266=ORIENTED_EDGE('',*,*,#186,.F.);
#267=TOROIDAL_SURFACE('',#304,4.1,0.1);
#268=TOROIDAL_SURFACE('',#320,5.7,0.8);
#269=ADVANCED_FACE('',(#69),#267,.F.);
#270=ADVANCED_FACE('',(#70),#67,.T.);
#271=ADVANCED_FACE('',(#71,#24),#26,.T.);
#272=ADVANCED_FACE('',(#72),#22,.T.);
#273=ADVANCED_FACE('',(#73),#27,.T.);
#274=ADVANCED_FACE('',(#74),#268,.T.);
#275=ADVANCED_FACE('',(#75,#25),#28,.T.);
#276=ADVANCED_FACE('',(#76),#68,.T.);
#277=ADVANCED_FACE('',(#77),#29,.F.);
#278=ADVANCED_FACE('',(#78),#30,.F.);
#279=ADVANCED_FACE('',(#79),#31,.F.);
#280=ADVANCED_FACE('',(#80),#32,.F.);
#281=ADVANCED_FACE('',(#81),#33,.F.);
#282=ADVANCED_FACE('',(#82),#34,.F.);
#283=ADVANCED_FACE('',(#83),#23,.F.);
#284=CLOSED_SHELL('',(#269,#270,#271,#272,#273,#274,#275,#276,#277,#278,
#279,#280,#281,#282,#283));
#285=DERIVED_UNIT_ELEMENT(#287,1.);
#286=DERIVED_UNIT_ELEMENT(#522,3.);
#287=(
MASS_UNIT()
NAMED_UNIT(*)
SI_UNIT($,.GRAM.)
);
#288=DERIVED_UNIT((#285,#286));
#289=MEASURE_REPRESENTATION_ITEM('density measure',
POSITIVE_RATIO_MEASURE(7.85),#288);
#290=PROPERTY_DEFINITION_REPRESENTATION(#295,#292);
#291=PROPERTY_DEFINITION_REPRESENTATION(#296,#293);
#292=REPRESENTATION('material name',(#294),#519);
#293=REPRESENTATION('density',(#289),#519);
#294=DESCRIPTIVE_REPRESENTATION_ITEM('Ocel zinkovan\X\E1',
'Ocel zinkovan\X\E1');
#295=PROPERTY_DEFINITION('material property','material name',#529);
#296=PROPERTY_DEFINITION('material property','density of part',#529);
#297=DATE_TIME_ROLE('creation_date');
#298=CC_DESIGN_DATE_AND_TIME_ASSIGNMENT(#299,#297,(#529));
#299=DATE_AND_TIME(#300,#301);
#300=CALENDAR_DATE(2011,2,2);
#301=LOCAL_TIME(0,0,0.,#302);
#302=COORDINATED_UNIVERSAL_TIME_OFFSET(0,0,.BEHIND.);
#303=AXIS2_PLACEMENT_3D('placement',#418,#336,#337);
#304=AXIS2_PLACEMENT_3D('',#419,#338,#339);
#305=AXIS2_PLACEMENT_3D('',#422,#340,#341);
#306=AXIS2_PLACEMENT_3D('',#424,#342,#343);
#307=AXIS2_PLACEMENT_3D('',#426,#344,#345);
#308=AXIS2_PLACEMENT_3D('',#428,#346,#347);
#309=AXIS2_PLACEMENT_3D('',#429,#348,#349);
#310=AXIS2_PLACEMENT_3D('',#430,#350,#351);
#311=AXIS2_PLACEMENT_3D('',#431,#352,#353);
#312=AXIS2_PLACEMENT_3D('',#434,#354,#355);
#313=AXIS2_PLACEMENT_3D('',#435,#356,#357);
#314=AXIS2_PLACEMENT_3D('',#437,#359,#360);
#315=AXIS2_PLACEMENT_3D('',#440,#361,#362);
#316=AXIS2_PLACEMENT_3D('',#441,#363,#364);
#317=AXIS2_PLACEMENT_3D('',#442,#365,#366);
#318=AXIS2_PLACEMENT_3D('',#444,#367,#368);
#319=AXIS2_PLACEMENT_3D('',#446,#370,#371);
#320=AXIS2_PLACEMENT_3D('',#447,#372,#373);
#321=AXIS2_PLACEMENT_3D('',#450,#374,#375);
#322=AXIS2_PLACEMENT_3D('',#452,#376,#377);
#323=AXIS2_PLACEMENT_3D('',#454,#378,#379);
#324=AXIS2_PLACEMENT_3D('',#456,#380,#381);
#325=AXIS2_PLACEMENT_3D('',#457,#382,#383);
#326=AXIS2_PLACEMENT_3D('',#458,#384,#385);
#327=AXIS2_PLACEMENT_3D('',#459,#386,#387);
#328=AXIS2_PLACEMENT_3D('',#472,#394,#395);
#329=AXIS2_PLACEMENT_3D('',#474,#397,#398);
#330=AXIS2_PLACEMENT_3D('',#482,#401,#402);
#331=AXIS2_PLACEMENT_3D('',#488,#404,#405);
#332=AXIS2_PLACEMENT_3D('',#494,#407,#408);
#333=AXIS2_PLACEMENT_3D('',#500,#410,#411);
#334=AXIS2_PLACEMENT_3D('',#510,#413,#414);
#335=AXIS2_PLACEMENT_3D('',#514,#415,#416);
#336=DIRECTION('axis',(0.,0.,1.));
#337=DIRECTION('refdir',(1.,0.,0.));
#338=DIRECTION('center_axis',(1.,5.47253781955099E-19,0.));
#339=DIRECTION('ref_axis',(0.,0.,-1.));
#340=DIRECTION('center_axis',(1.,5.47253781955099E-19,0.));
#341=DIRECTION('ref_axis',(5.47253781955099E-19,-1.,1.22464679914735E-16));
#342=DIRECTION('center_axis',(5.47253781955099E-19,-1.,-1.22464679914735E-16));
#343=DIRECTION('ref_axis',(0.,-1.22464679914735E-16,1.));
#344=DIRECTION('center_axis',(-1.,-5.47253781955099E-19,0.));
#345=DIRECTION('ref_axis',(0.,-1.,1.22464679914735E-16));
#346=DIRECTION('center_axis',(-1.,-5.47253781955099E-19,0.));
#347=DIRECTION('ref_axis',(0.,-1.,1.22464679914735E-16));
#348=DIRECTION('center_axis',(-1.,-5.47253781955099E-19,0.));
#349=DIRECTION('ref_axis',(0.,-1.,1.22464679914735E-16));
#350=DIRECTION('center_axis',(1.,5.47253781955099E-19,0.));
#351=DIRECTION('ref_axis',(5.47253781955099E-19,-1.,1.22464679914735E-16));
#352=DIRECTION('center_axis',(1.,5.47253781955099E-19,0.));
#353=DIRECTION('ref_axis',(0.,1.,0.));
#354=DIRECTION('center_axis',(1.,5.47253781955099E-19,0.));
#355=DIRECTION('ref_axis',(0.,-1.,0.));
#356=DIRECTION('center_axis',(1.,5.47253781955099E-19,0.));
#357=DIRECTION('ref_axis',(0.,-1.,0.));
#358=DIRECTION('',(-1.,-5.47253781955099E-19,0.));
#359=DIRECTION('center_axis',(1.,5.47253781955099E-19,0.));
#360=DIRECTION('ref_axis',(0.,0.,-1.));
#361=DIRECTION('center_axis',(1.,5.47253781955099E-19,0.));
#362=DIRECTION('ref_axis',(0.,1.,0.));
#363=DIRECTION('center_axis',(1.,5.47253781955099E-19,0.));
#364=DIRECTION('ref_axis',(0.,1.,0.));
#365=DIRECTION('center_axis',(-1.,-5.47253781955099E-19,0.));
#366=DIRECTION('ref_axis',(2.44618860930254E-19,-1.,0.));
#367=DIRECTION('center_axis',(-1.,-5.47253781955099E-19,0.));
#368=DIRECTION('ref_axis',(5.47253781955099E-19,-1.,0.));
#369=DIRECTION('',(-0.707106781186548,0.707106781186548,8.65956056235494E-17));
#370=DIRECTION('center_axis',(1.,5.47253781955099E-19,0.));
#371=DIRECTION('ref_axis',(0.,0.,-1.));
#372=DIRECTION('center_axis',(1.,5.47253781955099E-19,0.));
#373=DIRECTION('ref_axis',(0.,0.,-1.));
#374=DIRECTION('center_axis',(-1.,-5.47253781955099E-19,0.));
#375=DIRECTION('ref_axis',(0.,-1.,1.22464679914735E-16));
#376=DIRECTION('center_axis',(-1.,-5.47253781955099E-19,0.));
#377=DIRECTION('ref_axis',(0.,-1.,1.22464679914735E-16));
#378=DIRECTION('center_axis',(5.47253781955099E-19,-1.,-1.22464679914735E-16));
#379=DIRECTION('ref_axis',(0.,-1.22464679914735E-16,1.));
#380=DIRECTION('center_axis',(1.,5.47253781955099E-19,0.));
#381=DIRECTION('ref_axis',(5.47253781955099E-19,-1.,1.22464679914735E-16));
#382=DIRECTION('center_axis',(1.,5.47253781955099E-19,0.));
#383=DIRECTION('ref_axis',(5.47253781955099E-19,-1.,1.22464679914735E-16));
#384=DIRECTION('center_axis',(-1.,-5.47253781955099E-19,0.));
#385=DIRECTION('ref_axis',(0.,-1.,1.22464679914735E-16));
#386=DIRECTION('center_axis',(-1.,-5.47253781955099E-19,0.));
#387=DIRECTION('ref_axis',(0.,0.,1.));
#388=DIRECTION('',(-7.3664402187736E-34,1.3460738804685E-15,1.));
#389=DIRECTION('',(4.73935677490226E-19,-0.866025403784438,0.500000000000001));
#390=DIRECTION('',(4.73935677490226E-19,-0.866025403784439,-0.5));
#391=DIRECTION('',(5.26174301340971E-35,-9.61481343191782E-17,-1.));
#392=DIRECTION('',(-4.73935677490226E-19,0.866025403784439,-0.5));
#393=DIRECTION('',(-4.73935677490226E-19,0.866025403784439,0.5));
#394=DIRECTION('center_axis',(1.,5.47253781955099E-19,0.));
#395=DIRECTION('ref_axis',(0.,1.,0.));
#396=DIRECTION('',(-1.,-5.47253781955099E-19,0.));
#397=DIRECTION('center_axis',(2.7362689097755E-19,-0.5,-0.866025403784439));
#398=DIRECTION('ref_axis',(-1.,0.,-3.15957118326817E-19));
#399=DIRECTION('',(-1.,-5.47253781955099E-19,0.));
#400=DIRECTION('',(-1.,-5.47253781955099E-19,0.));
#401=DIRECTION('center_axis',(-2.73626890977549E-19,0.5,-0.866025403784439));
#402=DIRECTION('ref_axis',(-1.,0.,3.15957118326817E-19));
#403=DIRECTION('',(-1.,-5.47253781955099E-19,0.));
#404=DIRECTION('center_axis',(-5.47253781955099E-19,1.,-1.3460738804685E-15));
#405=DIRECTION('ref_axis',(0.,1.3460738804685E-15,1.));
#406=DIRECTION('',(-1.,-5.47253781955099E-19,0.));
#407=DIRECTION('center_axis',(-2.7362689097755E-19,0.500000000000001,0.866025403784438));
#408=DIRECTION('ref_axis',(1.,0.,3.15957118326818E-19));
#409=DIRECTION('',(1.,5.47253781955099E-19,0.));
#410=DIRECTION('center_axis',(5.47253781955099E-19,-1.,9.61481343191782E-17));
#411=DIRECTION('ref_axis',(0.,-9.61481343191782E-17,-1.));
#412=DIRECTION('',(-1.,-5.47253781955099E-19,0.));
#413=DIRECTION('center_axis',(2.7362689097755E-19,-0.5,0.866025403784439));
#414=DIRECTION('ref_axis',(1.,0.,-3.15957118326817E-19));
#415=DIRECTION('center_axis',(-1.,-5.47253781955099E-19,0.));
#416=DIRECTION('ref_axis',(0.,1.,0.));
#417=DIRECTION('',(-0.5,-0.866025403784438,-1.06057523872491E-16));
#418=CARTESIAN_POINT('',(0.,0.,0.));
#419=CARTESIAN_POINT('Origin',(0.0999999999999979,-3.27805015391104E-17,
0.));
#420=CARTESIAN_POINT('',(2.2182023087443E-15,4.1,0.));
#421=CARTESIAN_POINT('',(2.22044604925031E-15,-5.34940414567721E-16,4.1));
#422=CARTESIAN_POINT('Origin',(2.22044604925031E-15,-3.28352269173059E-17,
0.));
#423=CARTESIAN_POINT('',(0.0999999999999979,-5.22639221198052E-16,4.));
#424=CARTESIAN_POINT('Origin',(0.0999999999999979,-5.34885689189526E-16,
4.1));
#425=CARTESIAN_POINT('',(0.0999999999999979,4.,-9.79717439317884E-16));
#426=CARTESIAN_POINT('Origin',(0.0999999999999979,-3.27805015391104E-17,
0.));
#427=CARTESIAN_POINT('',(0.0999999999999979,-4.,-4.89858719658942E-16));
#428=CARTESIAN_POINT('Origin',(0.0999999999999979,-3.27805015391104E-17,
0.));
#429=CARTESIAN_POINT('Origin',(0.0999999999999979,-3.27805015391104E-17,
0.));
#430=CARTESIAN_POINT('Origin',(2.22044604925031E-15,-3.28352269173059E-17,
0.));
#431=CARTESIAN_POINT('Origin',(49.,-6.01979160150609E-18,0.));
#432=CARTESIAN_POINT('',(59.2331875,4.,4.89858719658942E-16));
#433=CARTESIAN_POINT('',(59.2331875,-4.,-4.89858719658942E-16));
#434=CARTESIAN_POINT('Origin',(59.2331875,-4.19641040675444E-19,0.));
#435=CARTESIAN_POINT('Origin',(59.2331875,-4.19641040675444E-19,0.));
#436=CARTESIAN_POINT('',(49.,-4.,-4.89858719658942E-16));
#437=CARTESIAN_POINT('Origin',(2.22044604925031E-15,5.25,0.));
#438=CARTESIAN_POINT('',(2.22044604925031E-15,6.5,0.));
#439=CARTESIAN_POINT('',(0.,-6.5,-7.9602041944578E-16));
#440=CARTESIAN_POINT('Origin',(0.,-3.28352269173059E-17,0.));
#441=CARTESIAN_POINT('Origin',(0.,-3.28352269173059E-17,0.));
#442=CARTESIAN_POINT('Origin',(59.61659375,-2.09820520337722E-19,0.));
#443=CARTESIAN_POINT('',(60.,3.2331875,-3.95951272291824E-16));
#444=CARTESIAN_POINT('Origin',(60.,4.21297175334708E-34,0.));
#445=CARTESIAN_POINT('',(59.61659375,3.61659375,4.42904995975383E-16));
#446=CARTESIAN_POINT('Origin',(60.,2.,0.));
#447=CARTESIAN_POINT('Origin',(-4.2,-3.51336928015174E-17,0.));
#448=CARTESIAN_POINT('',(-4.2,6.5,-1.59204083889156E-15));
#449=CARTESIAN_POINT('',(-4.2,-6.5,-7.9602041944578E-16));
#450=CARTESIAN_POINT('Origin',(-4.2,-3.51336928015174E-17,0.));
#451=CARTESIAN_POINT('',(-4.2,-8.31154112247297E-16,6.5));
#452=CARTESIAN_POINT('Origin',(-4.2,-3.51336928015174E-17,0.));
#453=CARTESIAN_POINT('',(-5.,-7.33620171341073E-16,5.7));
#454=CARTESIAN_POINT('Origin',(-4.2,-7.33182368315509E-16,5.7));
#455=CARTESIAN_POINT('',(-5.,5.7,0.));
#456=CARTESIAN_POINT('Origin',(-5.,-3.55714958270814E-17,0.));
#457=CARTESIAN_POINT('Origin',(-5.,-3.55714958270814E-17,0.));
#458=CARTESIAN_POINT('Origin',(-4.2,-3.51336928015174E-17,0.));
#459=CARTESIAN_POINT('Origin',(-5.,4.69337567297407,0.));
#460=CARTESIAN_POINT('',(-5.,2.5,-1.44337567297407));
#461=CARTESIAN_POINT('',(-5.,2.5,1.44337567297406));
#462=CARTESIAN_POINT('',(-5.,2.5,0.721687836487028));
#463=CARTESIAN_POINT('',(-5.,3.17953583747887E-16,2.88675134594813));
#464=CARTESIAN_POINT('',(-5.,0.625000000000001,2.52590742770461));
#465=CARTESIAN_POINT('',(-5.,-2.5,1.44337567297406));
#466=CARTESIAN_POINT('',(-5.,-1.875,1.80421959121758));
#467=CARTESIAN_POINT('',(-5.,-2.5,-1.44337567297406));
#468=CARTESIAN_POINT('',(-5.,-2.5,-0.721687836487032));
#469=CARTESIAN_POINT('',(-5.,-3.83716354727787E-16,-2.88675134594813));
#470=CARTESIAN_POINT('',(-5.,-0.625000000000001,-2.52590742770461));
#471=CARTESIAN_POINT('',(-5.,1.875,-1.80421959121758));
#472=CARTESIAN_POINT('Origin',(-2.5,-3.42033613721937E-17,0.));
#473=CARTESIAN_POINT('',(-2.5,-6.5,-7.9602041944578E-16));
#474=CARTESIAN_POINT('Origin',(-5.,-3.83716354727787E-16,-2.88675134594813));
#475=CARTESIAN_POINT('',(-1.2,2.07956437142938E-18,-2.88675134594813));
#476=CARTESIAN_POINT('',(-1.2,-2.5,-1.44337567297406));
#477=CARTESIAN_POINT('Ctrl Pts',(-1.2,-5.22531670493518E-16,-2.88675134594813));
#478=CARTESIAN_POINT('Ctrl Pts',(-0.783333333333329,-1.25,-2.1650635094611));
#479=CARTESIAN_POINT('Ctrl Pts',(-1.2,-2.5,-1.44337567297406));
#480=CARTESIAN_POINT('',(-3.1,0.,-2.88675134594813));
#481=CARTESIAN_POINT('',(-3.1,-2.5,-1.44337567297406));
#482=CARTESIAN_POINT('Origin',(-5.,2.5,-1.44337567297407));
#483=CARTESIAN_POINT('',(-1.2,2.5,-1.44337567297407));
#484=CARTESIAN_POINT('Ctrl Pts',(-1.2,2.5,-1.44337567297407));
#485=CARTESIAN_POINT('Ctrl Pts',(-0.78333333333333,1.25,-2.1650635094611));
#486=CARTESIAN_POINT('Ctrl Pts',(-1.2,1.00402498836607E-15,-2.88675134594813));
#487=CARTESIAN_POINT('',(-3.1,2.5,-1.44337567297407));
#488=CARTESIAN_POINT('Origin',(-5.,2.5,1.44337567297406));
#489=CARTESIAN_POINT('',(-1.2,2.5,1.44337567297406));
#490=CARTESIAN_POINT('Ctrl Pts',(-1.2,2.5,1.44337567297406));
#491=CARTESIAN_POINT('Ctrl Pts',(-0.783333333333329,2.5,-3.33066907387547E-15));
#492=CARTESIAN_POINT('Ctrl Pts',(-1.2,2.5,-1.44337567297407));
#493=CARTESIAN_POINT('',(-3.1,2.5,1.44337567297406));
#494=CARTESIAN_POINT('Origin',(-5.,-2.73626890977549E-18,2.88675134594813));
#495=CARTESIAN_POINT('',(-1.2,-8.30587704097438E-16,2.88675134594813));
#496=CARTESIAN_POINT('Ctrl Pts',(-1.2,1.69791437875679E-15,2.88675134594813));
#497=CARTESIAN_POINT('Ctrl Pts',(-0.783333333333328,1.25,2.16506350946109));
#498=CARTESIAN_POINT('Ctrl Pts',(-1.2,2.5,1.44337567297406));
#499=CARTESIAN_POINT('',(-3.1,-8.32667268468867E-16,2.88675134594813));
#500=CARTESIAN_POINT('Origin',(-5.,-2.5,-1.44337567297406));
#501=CARTESIAN_POINT('',(-0.976709006307393,-2.5,-2.17487887254876E-16));
#502=CARTESIAN_POINT('Ctrl Pts',(-1.2,-2.5,-1.44337567297406));
#503=CARTESIAN_POINT('Ctrl Pts',(-0.976709006307393,-2.5,-0.669872981077807));
#504=CARTESIAN_POINT('Ctrl Pts',(-0.976709006307393,-2.5,-1.28814074722915E-16));
#505=CARTESIAN_POINT('',(-1.2,-2.5,1.44337567297406));
#506=CARTESIAN_POINT('',(-3.1,-2.5,1.44337567297406));
#507=CARTESIAN_POINT('Ctrl Pts',(-0.976709006307393,-2.5,-1.28814074722915E-16));
#508=CARTESIAN_POINT('Ctrl Pts',(-0.976709006307393,-2.5,0.669872981077807));
#509=CARTESIAN_POINT('Ctrl Pts',(-1.2,-2.5,1.44337567297406));
#510=CARTESIAN_POINT('Origin',(-5.,-2.5,1.44337567297406));
#511=CARTESIAN_POINT('Ctrl Pts',(-1.2,-2.5,1.44337567297406));
#512=CARTESIAN_POINT('Ctrl Pts',(-0.783333333333329,-1.25,2.1650635094611));
#513=CARTESIAN_POINT('Ctrl Pts',(-1.2,3.25798418190602E-17,2.88675134594813));
#514=CARTESIAN_POINT('Origin',(-0.366666666666662,-3.30358866373561E-17,
0.));
#515=CARTESIAN_POINT('',(0.466666666666672,-3.25798418190602E-17,0.));
#516=CARTESIAN_POINT('',(-0.366666666666662,-1.44337567297406,-1.76762539787484E-16));
#517=UNCERTAINTY_MEASURE_WITH_UNIT(LENGTH_MEASURE(0.01),#521,
'DISTANCE_ACCURACY_VALUE',
'Maximum model space distance between geometric entities at asserted c
onnectivities');
#518=UNCERTAINTY_MEASURE_WITH_UNIT(LENGTH_MEASURE(0.01),#521,
'DISTANCE_ACCURACY_VALUE',
'Maximum model space distance between geometric entities at asserted c
onnectivities');
#519=(
GEOMETRIC_REPRESENTATION_CONTEXT(3)
GLOBAL_UNCERTAINTY_ASSIGNED_CONTEXT((#517))
GLOBAL_UNIT_ASSIGNED_CONTEXT((#521,#523,#524))
REPRESENTATION_CONTEXT('','3D')
);
#520=(
GEOMETRIC_REPRESENTATION_CONTEXT(3)
GLOBAL_UNCERTAINTY_ASSIGNED_CONTEXT((#518))
GLOBAL_UNIT_ASSIGNED_CONTEXT((#521,#523,#524))
REPRESENTATION_CONTEXT('','3D')
);
#521=(
LENGTH_UNIT()
NAMED_UNIT(*)
SI_UNIT(.MILLI.,.METRE.)
);
#522=(
LENGTH_UNIT()
NAMED_UNIT(*)
SI_UNIT(.CENTI.,.METRE.)
);
#523=(
NAMED_UNIT(*)
PLANE_ANGLE_UNIT()
SI_UNIT($,.RADIAN.)
);
#524=(
NAMED_UNIT(*)
SI_UNIT($,.STERADIAN.)
SOLID_ANGLE_UNIT()
);
#525=SHAPE_DEFINITION_REPRESENTATION(#526,#527);
#526=PRODUCT_DEFINITION_SHAPE('',$,#529);
#527=SHAPE_REPRESENTATION('',(#303),#519);
#528=DESIGN_CONTEXT('part definition',#533,'design');
#529=PRODUCT_DEFINITION('200860','200860',#530,#528);
#530=PRODUCT_DEFINITION_FORMATION('',$,#535);
#531=PRODUCT_RELATED_PRODUCT_CATEGORY('200860','200860',(#535));
#532=APPLICATION_PROTOCOL_DEFINITION('international standard',
'ap203_configuration_controlled_3d_design_of_mechanical_parts_and_asse
mblies_mim_lf',2004,#533);
#533=APPLICATION_CONTEXT(
'Configuration Controlled 3D Design of Mechanical Parts and Assemblies');
#534=MECHANICAL_CONTEXT('part definition',#533,'mechanical');
#535=PRODUCT('200860','200860','\X2\015A\X0\ruba DIN 7984',(#534));
#536=PRESENTATION_STYLE_ASSIGNMENT((#537));
#537=SURFACE_STYLE_USAGE(.BOTH.,#540);
#538=SURFACE_STYLE_RENDERING_WITH_PROPERTIES($,#544,(#539));
#539=SURFACE_STYLE_TRANSPARENT(0.);
#540=SURFACE_SIDE_STYLE('',(#541,#538));
#541=SURFACE_STYLE_FILL_AREA(#542);
#542=FILL_AREA_STYLE('',(#543));
#543=FILL_AREA_STYLE_COLOUR('',#544);
#544=COLOUR_RGB('',0.87843137254902,0.874509803921569,0.858823529411765);
ENDSEC;
END-ISO-10303-21;
