ISO-10303-21;
HEADER;
/* Generated by software containing ST-Developer
 * from STEP Tools, Inc. (www.steptools.com) 
 */

FILE_DESCRIPTION(
/* description */ ('\X2\0161\X0\roub s int. podlo\X2\017E\X0\kou, BN11
252'),
/* implementation_level */ '2;1');

FILE_NAME(
/* name */ 
'D:\\VaultPracovni\\Zak\X\E1zky\\P\X2\015900ED\X0\slu\X2\0161\X0\enstv
\X\ED k profil\X2\016F\X0\m\\Modul 40 dr\X\E1\X2\017E\X0\ka 10\\Spojov
ac\X\ED prvky\\200820.2\\200820.2.stp',
/* time_stamp */ '2018-06-11T17:01:49+02:00',
/* author */ ('Fran\X2\010D\X0\eov\X\E1'),
/* organization */ ('Alutec K&K'),
/* preprocessor_version */ 'ST-DEVELOPER v16.1',
/* originating_system */ 'Autodesk Inventor 2016',
/* authorisation */ '');

FILE_SCHEMA (('AUTOMOTIVE_DESIGN { 1 0 10303 214 3 1 1 }'));
ENDSEC;

DATA;
#10=MECHANICAL_DESIGN_GEOMETRIC_PRESENTATION_REPRESENTATION('',(#13),#417);
#11=SHAPE_REPRESENTATION_RELATIONSHIP('SRR','None',#426,#12);
#12=ADVANCED_BREP_SHAPE_REPRESENTATION('',(#14),#416);
#13=STYLED_ITEM('',(#435),#14);
#14=MANIFOLD_SOLID_BREP('Solid1',#242);
#15=(
BOUNDED_CURVE()
B_SPLINE_CURVE(2,(#380,#381,#382),.UNSPECIFIED.,.F.,.F.)
B_SPLINE_CURVE_WITH_KNOTS((3,3),(0.,0.29210903451948),.UNSPECIFIED.)
CURVE()
GEOMETRIC_REPRESENTATION_ITEM()
RATIONAL_B_SPLINE_CURVE((1.,1.15470053837925,1.))
REPRESENTATION_ITEM('')
);
#16=(
BOUNDED_CURVE()
B_SPLINE_CURVE(2,(#387,#388,#389),.UNSPECIFIED.,.F.,.F.)
B_SPLINE_CURVE_WITH_KNOTS((3,3),(0.,0.29210903451948),.UNSPECIFIED.)
CURVE()
GEOMETRIC_REPRESENTATION_ITEM()
RATIONAL_B_SPLINE_CURVE((1.,1.15470053837925,1.))
REPRESENTATION_ITEM('')
);
#17=(
BOUNDED_CURVE()
B_SPLINE_CURVE(2,(#393,#394,#395),.UNSPECIFIED.,.F.,.F.)
B_SPLINE_CURVE_WITH_KNOTS((3,3),(0.,0.292109034519479),.UNSPECIFIED.)
CURVE()
GEOMETRIC_REPRESENTATION_ITEM()
RATIONAL_B_SPLINE_CURVE((1.,1.15470053837925,1.))
REPRESENTATION_ITEM('')
);
#18=(
BOUNDED_CURVE()
B_SPLINE_CURVE(2,(#399,#400,#401),.UNSPECIFIED.,.F.,.F.)
B_SPLINE_CURVE_WITH_KNOTS((3,3),(0.,0.292109034519479),.UNSPECIFIED.)
CURVE()
GEOMETRIC_REPRESENTATION_ITEM()
RATIONAL_B_SPLINE_CURVE((1.,1.15470053837925,1.))
REPRESENTATION_ITEM('')
);
#19=(
BOUNDED_CURVE()
B_SPLINE_CURVE(2,(#405,#406,#407),.UNSPECIFIED.,.F.,.F.)
B_SPLINE_CURVE_WITH_KNOTS((3,3),(0.,0.292109034519479),.UNSPECIFIED.)
CURVE()
GEOMETRIC_REPRESENTATION_ITEM()
RATIONAL_B_SPLINE_CURVE((1.,1.15470053837925,1.))
REPRESENTATION_ITEM('')
);
#20=(
BOUNDED_CURVE()
B_SPLINE_CURVE(2,(#410,#411,#412),.UNSPECIFIED.,.F.,.F.)
B_SPLINE_CURVE_WITH_KNOTS((3,3),(0.,0.292109034519479),.UNSPECIFIED.)
CURVE()
GEOMETRIC_REPRESENTATION_ITEM()
RATIONAL_B_SPLINE_CURVE((1.,1.15470053837925,1.))
REPRESENTATION_ITEM('')
);
#21=LINE('',#366,#33);
#22=LINE('',#368,#34);
#23=LINE('',#370,#35);
#24=LINE('',#372,#36);
#25=LINE('',#374,#37);
#26=LINE('',#375,#38);
#27=LINE('',#383,#39);
#28=LINE('',#384,#40);
#29=LINE('',#390,#41);
#30=LINE('',#396,#42);
#31=LINE('',#402,#43);
#32=LINE('',#408,#44);
#33=VECTOR('',#308,2.88675134594813);
#34=VECTOR('',#309,2.88675134594813);
#35=VECTOR('',#310,2.88675134594813);
#36=VECTOR('',#311,2.88675134594813);
#37=VECTOR('',#312,2.88675134594813);
#38=VECTOR('',#313,2.88675134594813);
#39=VECTOR('',#318,2.6);
#40=VECTOR('',#319,2.6);
#41=VECTOR('',#322,2.6);
#42=VECTOR('',#325,2.6);
#43=VECTOR('',#328,2.6);
#44=VECTOR('',#331,2.6);
#45=CONICAL_SURFACE('',#255,3.61659375,45.);
#46=CONICAL_SURFACE('',#269,1.44337567297406,59.9999999999999);
#47=TOROIDAL_SURFACE('',#249,4.4,0.4);
#48=TOROIDAL_SURFACE('',#258,3.65,3.35);
#49=CYLINDRICAL_SURFACE('',#247,8.4);
#50=CYLINDRICAL_SURFACE('',#252,4.);
#51=CYLINDRICAL_SURFACE('',#262,7.);
#52=FACE_BOUND('',#79,.T.);
#53=FACE_BOUND('',#81,.T.);
#54=FACE_BOUND('',#83,.T.);
#55=FACE_BOUND('',#85,.T.);
#56=FACE_BOUND('',#87,.T.);
#57=FACE_BOUND('',#89,.T.);
#58=FACE_BOUND('',#92,.T.);
#59=FACE_BOUND('',#94,.T.);
#60=FACE_BOUND('',#96,.T.);
#61=FACE_OUTER_BOUND('',#78,.T.);
#62=FACE_OUTER_BOUND('',#80,.T.);
#63=FACE_OUTER_BOUND('',#82,.T.);
#64=FACE_OUTER_BOUND('',#84,.T.);
#65=FACE_OUTER_BOUND('',#86,.T.);
#66=FACE_OUTER_BOUND('',#88,.T.);
#67=FACE_OUTER_BOUND('',#90,.T.);
#68=FACE_OUTER_BOUND('',#91,.T.);
#69=FACE_OUTER_BOUND('',#93,.T.);
#70=FACE_OUTER_BOUND('',#95,.T.);
#71=FACE_OUTER_BOUND('',#97,.T.);
#72=FACE_OUTER_BOUND('',#98,.T.);
#73=FACE_OUTER_BOUND('',#99,.T.);
#74=FACE_OUTER_BOUND('',#100,.T.);
#75=FACE_OUTER_BOUND('',#101,.T.);
#76=FACE_OUTER_BOUND('',#102,.T.);
#77=FACE_OUTER_BOUND('',#103,.T.);
#78=EDGE_LOOP('',(#161));
#79=EDGE_LOOP('',(#162));
#80=EDGE_LOOP('',(#163));
#81=EDGE_LOOP('',(#164));
#82=EDGE_LOOP('',(#165));
#83=EDGE_LOOP('',(#166));
#84=EDGE_LOOP('',(#167));
#85=EDGE_LOOP('',(#168));
#86=EDGE_LOOP('',(#169));
#87=EDGE_LOOP('',(#170));
#88=EDGE_LOOP('',(#171));
#89=EDGE_LOOP('',(#172));
#90=EDGE_LOOP('',(#173));
#91=EDGE_LOOP('',(#174));
#92=EDGE_LOOP('',(#175));
#93=EDGE_LOOP('',(#176));
#94=EDGE_LOOP('',(#177,#178,#179,#180,#181,#182));
#95=EDGE_LOOP('',(#183));
#96=EDGE_LOOP('',(#184));
#97=EDGE_LOOP('',(#185,#186,#187,#188));
#98=EDGE_LOOP('',(#189,#190,#191,#192));
#99=EDGE_LOOP('',(#193,#194,#195,#196));
#100=EDGE_LOOP('',(#197,#198,#199,#200));
#101=EDGE_LOOP('',(#201,#202,#203,#204));
#102=EDGE_LOOP('',(#205,#206,#207,#208));
#103=EDGE_LOOP('',(#209,#210,#211,#212,#213,#214));
#104=CIRCLE('',#245,8.4);
#105=CIRCLE('',#246,7.);
#106=CIRCLE('',#248,8.4);
#107=CIRCLE('',#250,4.4);
#108=CIRCLE('',#251,4.);
#109=CIRCLE('',#253,4.);
#110=CIRCLE('',#256,3.2331875);
#111=CIRCLE('',#259,3.65);
#112=CIRCLE('',#260,7.);
#113=VERTEX_POINT('',#338);
#114=VERTEX_POINT('',#340);
#115=VERTEX_POINT('',#343);
#116=VERTEX_POINT('',#346);
#117=VERTEX_POINT('',#348);
#118=VERTEX_POINT('',#351);
#119=VERTEX_POINT('',#355);
#120=VERTEX_POINT('',#359);
#121=VERTEX_POINT('',#361);
#122=VERTEX_POINT('',#364);
#123=VERTEX_POINT('',#365);
#124=VERTEX_POINT('',#367);
#125=VERTEX_POINT('',#369);
#126=VERTEX_POINT('',#371);
#127=VERTEX_POINT('',#373);
#128=VERTEX_POINT('',#378);
#129=VERTEX_POINT('',#379);
#130=VERTEX_POINT('',#386);
#131=VERTEX_POINT('',#392);
#132=VERTEX_POINT('',#398);
#133=VERTEX_POINT('',#404);
#134=EDGE_CURVE('',#113,#113,#104,.T.);
#135=EDGE_CURVE('',#114,#114,#105,.T.);
#136=EDGE_CURVE('',#115,#115,#106,.T.);
#137=EDGE_CURVE('',#116,#116,#107,.T.);
#138=EDGE_CURVE('',#117,#117,#108,.T.);
#139=EDGE_CURVE('',#118,#118,#109,.T.);
#140=EDGE_CURVE('',#119,#119,#110,.T.);
#141=EDGE_CURVE('',#120,#120,#111,.T.);
#142=EDGE_CURVE('',#121,#121,#112,.T.);
#143=EDGE_CURVE('',#122,#123,#21,.T.);
#144=EDGE_CURVE('',#123,#124,#22,.T.);
#145=EDGE_CURVE('',#124,#125,#23,.T.);
#146=EDGE_CURVE('',#125,#126,#24,.T.);
#147=EDGE_CURVE('',#126,#127,#25,.T.);
#148=EDGE_CURVE('',#127,#122,#26,.T.);
#149=EDGE_CURVE('',#128,#129,#15,.T.);
#150=EDGE_CURVE('',#128,#127,#27,.T.);
#151=EDGE_CURVE('',#129,#126,#28,.T.);
#152=EDGE_CURVE('',#130,#128,#16,.T.);
#153=EDGE_CURVE('',#130,#122,#29,.T.);
#154=EDGE_CURVE('',#131,#130,#17,.T.);
#155=EDGE_CURVE('',#131,#123,#30,.T.);
#156=EDGE_CURVE('',#132,#131,#18,.T.);
#157=EDGE_CURVE('',#124,#132,#31,.T.);
#158=EDGE_CURVE('',#129,#133,#19,.T.);
#159=EDGE_CURVE('',#133,#125,#32,.T.);
#160=EDGE_CURVE('',#133,#132,#20,.T.);
#161=ORIENTED_EDGE('',*,*,#134,.F.);
#162=ORIENTED_EDGE('',*,*,#135,.F.);
#163=ORIENTED_EDGE('',*,*,#134,.T.);
#164=ORIENTED_EDGE('',*,*,#136,.T.);
#165=ORIENTED_EDGE('',*,*,#137,.T.);
#166=ORIENTED_EDGE('',*,*,#138,.T.);
#167=ORIENTED_EDGE('',*,*,#139,.F.);
#168=ORIENTED_EDGE('',*,*,#138,.F.);
#169=ORIENTED_EDGE('',*,*,#136,.F.);
#170=ORIENTED_EDGE('',*,*,#137,.F.);
#171=ORIENTED_EDGE('',*,*,#139,.T.);
#172=ORIENTED_EDGE('',*,*,#140,.T.);
#173=ORIENTED_EDGE('',*,*,#140,.F.);
#174=ORIENTED_EDGE('',*,*,#141,.T.);
#175=ORIENTED_EDGE('',*,*,#142,.T.);
#176=ORIENTED_EDGE('',*,*,#141,.F.);
#177=ORIENTED_EDGE('',*,*,#143,.T.);
#178=ORIENTED_EDGE('',*,*,#144,.T.);
#179=ORIENTED_EDGE('',*,*,#145,.T.);
#180=ORIENTED_EDGE('',*,*,#146,.T.);
#181=ORIENTED_EDGE('',*,*,#147,.T.);
#182=ORIENTED_EDGE('',*,*,#148,.T.);
#183=ORIENTED_EDGE('',*,*,#135,.T.);
#184=ORIENTED_EDGE('',*,*,#142,.F.);
#185=ORIENTED_EDGE('',*,*,#149,.F.);
#186=ORIENTED_EDGE('',*,*,#150,.T.);
#187=ORIENTED_EDGE('',*,*,#147,.F.);
#188=ORIENTED_EDGE('',*,*,#151,.F.);
#189=ORIENTED_EDGE('',*,*,#152,.F.);
#190=ORIENTED_EDGE('',*,*,#153,.T.);
#191=ORIENTED_EDGE('',*,*,#148,.F.);
#192=ORIENTED_EDGE('',*,*,#150,.F.);
#193=ORIENTED_EDGE('',*,*,#154,.F.);
#194=ORIENTED_EDGE('',*,*,#155,.T.);
#195=ORIENTED_EDGE('',*,*,#143,.F.);
#196=ORIENTED_EDGE('',*,*,#153,.F.);
#197=ORIENTED_EDGE('',*,*,#156,.F.);
#198=ORIENTED_EDGE('',*,*,#157,.F.);
#199=ORIENTED_EDGE('',*,*,#144,.F.);
#200=ORIENTED_EDGE('',*,*,#155,.F.);
#201=ORIENTED_EDGE('',*,*,#158,.F.);
#202=ORIENTED_EDGE('',*,*,#151,.T.);
#203=ORIENTED_EDGE('',*,*,#146,.F.);
#204=ORIENTED_EDGE('',*,*,#159,.F.);
#205=ORIENTED_EDGE('',*,*,#160,.F.);
#206=ORIENTED_EDGE('',*,*,#159,.T.);
#207=ORIENTED_EDGE('',*,*,#145,.F.);
#208=ORIENTED_EDGE('',*,*,#157,.T.);
#209=ORIENTED_EDGE('',*,*,#156,.T.);
#210=ORIENTED_EDGE('',*,*,#154,.T.);
#211=ORIENTED_EDGE('',*,*,#152,.T.);
#212=ORIENTED_EDGE('',*,*,#149,.T.);
#213=ORIENTED_EDGE('',*,*,#158,.T.);
#214=ORIENTED_EDGE('',*,*,#160,.T.);
#215=PLANE('',#244);
#216=PLANE('',#254);
#217=PLANE('',#257);
#218=PLANE('',#261);
#219=PLANE('',#263);
#220=PLANE('',#264);
#221=PLANE('',#265);
#222=PLANE('',#266);
#223=PLANE('',#267);
#224=PLANE('',#268);
#225=ADVANCED_FACE('',(#61,#52),#215,.T.);
#226=ADVANCED_FACE('',(#62,#53),#49,.T.);
#227=ADVANCED_FACE('',(#63,#54),#47,.F.);
#228=ADVANCED_FACE('',(#64,#55),#50,.T.);
#229=ADVANCED_FACE('',(#65,#56),#216,.T.);
#230=ADVANCED_FACE('',(#66,#57),#45,.T.);
#231=ADVANCED_FACE('',(#67),#217,.T.);
#232=ADVANCED_FACE('',(#68,#58),#48,.T.);
#233=ADVANCED_FACE('',(#69,#59),#218,.T.);
#234=ADVANCED_FACE('',(#70,#60),#51,.T.);
#235=ADVANCED_FACE('',(#71),#219,.F.);
#236=ADVANCED_FACE('',(#72),#220,.F.);
#237=ADVANCED_FACE('',(#73),#221,.F.);
#238=ADVANCED_FACE('',(#74),#222,.F.);
#239=ADVANCED_FACE('',(#75),#223,.F.);
#240=ADVANCED_FACE('',(#76),#224,.F.);
#241=ADVANCED_FACE('',(#77),#46,.F.);
#242=CLOSED_SHELL('',(#225,#226,#227,#228,#229,#230,#231,#232,#233,#234,
#235,#236,#237,#238,#239,#240,#241));
#243=AXIS2_PLACEMENT_3D('placement',#336,#270,#271);
#244=AXIS2_PLACEMENT_3D('',#337,#272,#273);
#245=AXIS2_PLACEMENT_3D('',#339,#274,#275);
#246=AXIS2_PLACEMENT_3D('',#341,#276,#277);
#247=AXIS2_PLACEMENT_3D('',#342,#278,#279);
#248=AXIS2_PLACEMENT_3D('',#344,#280,#281);
#249=AXIS2_PLACEMENT_3D('',#345,#282,#283);
#250=AXIS2_PLACEMENT_3D('',#347,#284,#285);
#251=AXIS2_PLACEMENT_3D('',#349,#286,#287);
#252=AXIS2_PLACEMENT_3D('',#350,#288,#289);
#253=AXIS2_PLACEMENT_3D('',#352,#290,#291);
#254=AXIS2_PLACEMENT_3D('',#353,#292,#293);
#255=AXIS2_PLACEMENT_3D('',#354,#294,#295);
#256=AXIS2_PLACEMENT_3D('',#356,#296,#297);
#257=AXIS2_PLACEMENT_3D('',#357,#298,#299);
#258=AXIS2_PLACEMENT_3D('',#358,#300,#301);
#259=AXIS2_PLACEMENT_3D('',#360,#302,#303);
#260=AXIS2_PLACEMENT_3D('',#362,#304,#305);
#261=AXIS2_PLACEMENT_3D('',#363,#306,#307);
#262=AXIS2_PLACEMENT_3D('',#376,#314,#315);
#263=AXIS2_PLACEMENT_3D('',#377,#316,#317);
#264=AXIS2_PLACEMENT_3D('',#385,#320,#321);
#265=AXIS2_PLACEMENT_3D('',#391,#323,#324);
#266=AXIS2_PLACEMENT_3D('',#397,#326,#327);
#267=AXIS2_PLACEMENT_3D('',#403,#329,#330);
#268=AXIS2_PLACEMENT_3D('',#409,#332,#333);
#269=AXIS2_PLACEMENT_3D('',#413,#334,#335);
#270=DIRECTION('axis',(0.,0.,1.));
#271=DIRECTION('refdir',(1.,0.,0.));
#272=DIRECTION('center_axis',(-1.,0.,0.));
#273=DIRECTION('ref_axis',(0.,0.,1.));
#274=DIRECTION('center_axis',(1.,0.,0.));
#275=DIRECTION('ref_axis',(0.,-1.,0.));
#276=DIRECTION('center_axis',(-1.,0.,0.));
#277=DIRECTION('ref_axis',(0.,1.,0.));
#278=DIRECTION('center_axis',(-1.,0.,0.));
#279=DIRECTION('ref_axis',(0.,-1.,0.));
#280=DIRECTION('center_axis',(-1.,0.,0.));
#281=DIRECTION('ref_axis',(0.,-1.,0.));
#282=DIRECTION('center_axis',(1.,-3.85344109717901E-19,0.));
#283=DIRECTION('ref_axis',(0.,0.,-1.));
#284=DIRECTION('center_axis',(1.,-3.85344109717901E-19,0.));
#285=DIRECTION('ref_axis',(-3.85344109717901E-19,-1.,1.22464679914735E-16));
#286=DIRECTION('center_axis',(-1.,3.85344109717901E-19,0.));
#287=DIRECTION('ref_axis',(0.,-1.,1.22464679914735E-16));
#288=DIRECTION('center_axis',(1.,-3.85344109717901E-19,0.));
#289=DIRECTION('ref_axis',(0.,1.,0.));
#290=DIRECTION('center_axis',(1.,-3.85344109717901E-19,0.));
#291=DIRECTION('ref_axis',(0.,-1.,0.));
#292=DIRECTION('center_axis',(1.,-3.85344109717901E-19,0.));
#293=DIRECTION('ref_axis',(0.,0.,-1.));
#294=DIRECTION('center_axis',(-1.,3.85344109717901E-19,0.));
#295=DIRECTION('ref_axis',(-1.7224629649633E-19,-1.,0.));
#296=DIRECTION('center_axis',(-1.,3.85344109717901E-19,0.));
#297=DIRECTION('ref_axis',(-3.85344109717901E-19,-1.,0.));
#298=DIRECTION('center_axis',(1.,-3.85344109717901E-19,0.));
#299=DIRECTION('ref_axis',(0.,0.,-1.));
#300=DIRECTION('center_axis',(1.,-3.85344109717901E-19,0.));
#301=DIRECTION('ref_axis',(0.,0.,-1.));
#302=DIRECTION('center_axis',(1.,-3.85344109717901E-19,0.));
#303=DIRECTION('ref_axis',(-3.85344109717901E-19,-1.,1.22464679914735E-16));
#304=DIRECTION('center_axis',(-1.,3.85344109717901E-19,0.));
#305=DIRECTION('ref_axis',(0.,-1.,1.22464679914735E-16));
#306=DIRECTION('center_axis',(-1.,3.85344109717901E-19,0.));
#307=DIRECTION('ref_axis',(0.,0.,1.));
#308=DIRECTION('',(2.59350820541827E-34,6.73036940234248E-16,1.));
#309=DIRECTION('',(-3.33717788214401E-19,-0.866025403784438,0.5));
#310=DIRECTION('',(-3.33717788214401E-19,-0.866025403784439,-0.5));
#311=DIRECTION('',(-3.70501172202609E-35,-9.61481343191782E-17,-1.));
#312=DIRECTION('',(3.33717788214401E-19,0.866025403784439,-0.5));
#313=DIRECTION('',(3.33717788214401E-19,0.866025403784439,0.5));
#314=DIRECTION('center_axis',(1.,-3.85344109717901E-19,0.));
#315=DIRECTION('ref_axis',(0.,1.,0.));
#316=DIRECTION('center_axis',(-1.92672054858951E-19,-0.5,-0.866025403784439));
#317=DIRECTION('ref_axis',(-1.,0.,0.));
#318=DIRECTION('',(-1.,3.85344109717901E-19,0.));
#319=DIRECTION('',(-1.,3.85344109717901E-19,0.));
#320=DIRECTION('center_axis',(1.92672054858951E-19,0.5,-0.866025403784439));
#321=DIRECTION('ref_axis',(-1.,0.,0.));
#322=DIRECTION('',(-1.,3.85344109717901E-19,0.));
#323=DIRECTION('center_axis',(3.85344109717901E-19,1.,-6.73036940234248E-16));
#324=DIRECTION('ref_axis',(0.,6.66133814775094E-16,1.));
#325=DIRECTION('',(-1.,3.85344109717901E-19,0.));
#326=DIRECTION('center_axis',(1.92672054858951E-19,0.5,0.866025403784438));
#327=DIRECTION('ref_axis',(1.,0.,0.));
#328=DIRECTION('',(1.,-3.85344109717901E-19,0.));
#329=DIRECTION('center_axis',(-3.85344109717901E-19,-1.,9.61481343191782E-17));
#330=DIRECTION('ref_axis',(0.,-8.88178419700125E-17,-1.));
#331=DIRECTION('',(-1.,3.85344109717901E-19,0.));
#332=DIRECTION('center_axis',(-1.92672054858951E-19,-0.5,0.866025403784439));
#333=DIRECTION('ref_axis',(1.,0.,0.));
#334=DIRECTION('center_axis',(-1.,3.85344109717901E-19,0.));
#335=DIRECTION('ref_axis',(0.,1.,0.));
#336=CARTESIAN_POINT('',(0.,0.,0.));
#337=CARTESIAN_POINT('Origin',(-0.88,0.,0.));
#338=CARTESIAN_POINT('',(-0.88,8.4,1.02870331128378E-15));
#339=CARTESIAN_POINT('Origin',(-0.88,0.,0.));
#340=CARTESIAN_POINT('',(-0.88,-7.,8.57252759403147E-16));
#341=CARTESIAN_POINT('Origin',(-0.88,8.04598501090978E-18,0.));
#342=CARTESIAN_POINT('Origin',(0.,0.,0.));
#343=CARTESIAN_POINT('',(0.,8.4,1.02870331128378E-15));
#344=CARTESIAN_POINT('Origin',(0.,0.,0.));
#345=CARTESIAN_POINT('Origin',(0.400000000000003,7.55274455047087E-18,0.));
#346=CARTESIAN_POINT('',(2.22214156333307E-15,4.4,0.));
#347=CARTESIAN_POINT('Origin',(2.22044604925031E-15,7.70688219435803E-18,
0.));
#348=CARTESIAN_POINT('',(0.400000000000003,4.,-9.79717439317882E-16));
#349=CARTESIAN_POINT('Origin',(0.400000000000003,7.55274455047087E-18,0.));
#350=CARTESIAN_POINT('Origin',(11.25,3.37176096003164E-18,0.));
#351=CARTESIAN_POINT('',(19.2331875,4.,4.89858719658941E-16));
#352=CARTESIAN_POINT('Origin',(19.2331875,2.95486680133058E-19,0.));
#353=CARTESIAN_POINT('Origin',(2.22044604925031E-15,5.5,0.));
#354=CARTESIAN_POINT('Origin',(19.61659375,1.47743340066529E-19,0.));
#355=CARTESIAN_POINT('',(20.,3.2331875,-3.95951272291823E-16));
#356=CARTESIAN_POINT('Origin',(20.,6.01853107621011E-35,0.));
#357=CARTESIAN_POINT('Origin',(20.,2.,0.));
#358=CARTESIAN_POINT('Origin',(-1.05,8.11149350956182E-18,0.));
#359=CARTESIAN_POINT('',(-4.4,3.65,0.));
#360=CARTESIAN_POINT('Origin',(-4.4,9.40239627711679E-18,0.));
#361=CARTESIAN_POINT('',(-1.05,7.,-1.71450551880629E-15));
#362=CARTESIAN_POINT('Origin',(-1.05,8.11149350956182E-18,0.));
#363=CARTESIAN_POINT('Origin',(-4.4,4.94337567297407,0.));
#364=CARTESIAN_POINT('',(-4.4,2.5,-1.44337567297407));
#365=CARTESIAN_POINT('',(-4.4,2.5,1.44337567297406));
#366=CARTESIAN_POINT('',(-4.4,2.5,0.72168783648703));
#367=CARTESIAN_POINT('',(-4.4,3.62927475852086E-16,2.88675134594813));
#368=CARTESIAN_POINT('',(-4.4,0.625,2.52590742770461));
#369=CARTESIAN_POINT('',(-4.4,-2.5,1.44337567297407));
#370=CARTESIAN_POINT('',(-4.4,-1.875,1.80421959121758));
#371=CARTESIAN_POINT('',(-4.4,-2.5,-1.44337567297406));
#372=CARTESIAN_POINT('',(-4.4,-2.5,-0.721687836487032));
#373=CARTESIAN_POINT('',(-4.4,-3.38742462623589E-16,-2.88675134594813));
#374=CARTESIAN_POINT('',(-4.4,-0.625,-2.52590742770461));
#375=CARTESIAN_POINT('',(-4.4,1.875,-1.80421959121758));
#376=CARTESIAN_POINT('Origin',(-2.2,8.55463923573741E-18,0.));
#377=CARTESIAN_POINT('Origin',(-4.4,-3.38742462623589E-16,-2.88675134594813));
#378=CARTESIAN_POINT('',(-1.8,-8.33669163154134E-16,-2.88675134594813));
#379=CARTESIAN_POINT('',(-1.8,-2.5,-1.44337567297406));
#380=CARTESIAN_POINT('Ctrl Pts',(-1.8,-5.62869773721565E-16,-2.88675134594813));
#381=CARTESIAN_POINT('Ctrl Pts',(-1.38333333333333,-1.25,-2.1650635094611));
#382=CARTESIAN_POINT('Ctrl Pts',(-1.8,-2.5,-1.44337567297406));
#383=CARTESIAN_POINT('',(-3.1,-8.32667268468867E-16,-2.88675134594813));
#384=CARTESIAN_POINT('',(-3.1,-2.5,-1.44337567297406));
#385=CARTESIAN_POINT('Origin',(-4.4,2.5,-1.44337567297407));
#386=CARTESIAN_POINT('',(-1.8,2.5,-1.44337567297407));
#387=CARTESIAN_POINT('Ctrl Pts',(-1.8,2.5,-1.44337567297406));
#388=CARTESIAN_POINT('Ctrl Pts',(-1.38333333333333,1.25,-2.1650635094611));
#389=CARTESIAN_POINT('Ctrl Pts',(-1.8,-1.81187067642487E-15,-2.88675134594813));
#390=CARTESIAN_POINT('',(-3.1,2.5,-1.44337567297407));
#391=CARTESIAN_POINT('Origin',(-4.4,2.5,1.44337567297406));
#392=CARTESIAN_POINT('',(-1.8,2.5,1.44337567297406));
#393=CARTESIAN_POINT('Ctrl Pts',(-1.8,2.5,1.44337567297406));
#394=CARTESIAN_POINT('Ctrl Pts',(-1.38333333333333,2.5,-1.36343346605298E-15));
#395=CARTESIAN_POINT('Ctrl Pts',(-1.8,2.5,-1.44337567297406));
#396=CARTESIAN_POINT('',(-3.1,2.5,1.44337567297406));
#397=CARTESIAN_POINT('Origin',(-4.4,1.69551408275876E-18,2.88675134594813));
#398=CARTESIAN_POINT('',(-1.8,-1.00189468526654E-18,2.88675134594813));
#399=CARTESIAN_POINT('Ctrl Pts',(-1.8,2.90657717823205E-15,2.88675134594813));
#400=CARTESIAN_POINT('Ctrl Pts',(-1.38333333333333,1.25,2.1650635094611));
#401=CARTESIAN_POINT('Ctrl Pts',(-1.8,2.5,1.44337567297406));
#402=CARTESIAN_POINT('',(-3.1,0.,2.88675134594813));
#403=CARTESIAN_POINT('Origin',(-4.4,-2.5,-1.44337567297406));
#404=CARTESIAN_POINT('',(-1.8,-2.5,1.44337567297406));
#405=CARTESIAN_POINT('Ctrl Pts',(-1.8,-2.5,-1.44337567297406));
#406=CARTESIAN_POINT('Ctrl Pts',(-1.38333333333333,-2.5,2.77555756156289E-16));
#407=CARTESIAN_POINT('Ctrl Pts',(-1.8,-2.5,1.44337567297406));
#408=CARTESIAN_POINT('',(-3.1,-2.5,1.44337567297406));
#409=CARTESIAN_POINT('Origin',(-4.4,-2.5,1.44337567297407));
#410=CARTESIAN_POINT('Ctrl Pts',(-1.8,-2.5,1.44337567297407));
#411=CARTESIAN_POINT('Ctrl Pts',(-1.38333333333333,-1.25,2.1650635094611));
#412=CARTESIAN_POINT('Ctrl Pts',(-1.8,-7.0164765179971E-16,2.88675134594813));
#413=CARTESIAN_POINT('Origin',(-0.966666666666662,8.07938150041866E-18,
0.));
#414=UNCERTAINTY_MEASURE_WITH_UNIT(LENGTH_MEASURE(0.01),#418,
'DISTANCE_ACCURACY_VALUE',
'Maximum model space distance between geometric entities at asserted c
onnectivities');
#415=UNCERTAINTY_MEASURE_WITH_UNIT(LENGTH_MEASURE(1.E-6),#418,
'DISTANCE_ACCURACY_VALUE',
'Maximum model space distance between geometric entities at asserted c
onnectivities');
#416=(
GEOMETRIC_REPRESENTATION_CONTEXT(3)
GLOBAL_UNCERTAINTY_ASSIGNED_CONTEXT((#414))
GLOBAL_UNIT_ASSIGNED_CONTEXT((#418,#421,#419))
REPRESENTATION_CONTEXT('','3D')
);
#417=(
GEOMETRIC_REPRESENTATION_CONTEXT(3)
GLOBAL_UNCERTAINTY_ASSIGNED_CONTEXT((#415))
GLOBAL_UNIT_ASSIGNED_CONTEXT((#418,#421,#419))
REPRESENTATION_CONTEXT('','3D')
);
#418=(
LENGTH_UNIT()
NAMED_UNIT(*)
SI_UNIT(.MILLI.,.METRE.)
);
#419=(
NAMED_UNIT(*)
SI_UNIT($,.STERADIAN.)
SOLID_ANGLE_UNIT()
);
#420=DIMENSIONAL_EXPONENTS(0.,0.,0.,0.,0.,0.,0.);
#421=(
CONVERSION_BASED_UNIT('degree',#423)
NAMED_UNIT(#420)
PLANE_ANGLE_UNIT()
);
#422=(
NAMED_UNIT(*)
PLANE_ANGLE_UNIT()
SI_UNIT($,.RADIAN.)
);
#423=PLANE_ANGLE_MEASURE_WITH_UNIT(PLANE_ANGLE_MEASURE(0.01745329252),#422);
#424=SHAPE_DEFINITION_REPRESENTATION(#425,#426);
#425=PRODUCT_DEFINITION_SHAPE('',$,#428);
#426=SHAPE_REPRESENTATION('',(#243),#416);
#427=PRODUCT_DEFINITION_CONTEXT('part definition',#432,'design');
#428=PRODUCT_DEFINITION('200820.2','200820.2',#429,#427);
#429=PRODUCT_DEFINITION_FORMATION('',$,#434);
#430=PRODUCT_RELATED_PRODUCT_CATEGORY('200820.2','200820.2',(#434));
#431=APPLICATION_PROTOCOL_DEFINITION('international standard',
'automotive_design',2009,#432);
#432=APPLICATION_CONTEXT(
'Core Data for Automotive Mechanical Design Process');
#433=PRODUCT_CONTEXT('part definition',#432,'mechanical');
#434=PRODUCT('200820.2','200820.2',$,(#433));
#435=PRESENTATION_STYLE_ASSIGNMENT((#436));
#436=SURFACE_STYLE_USAGE(.BOTH.,#437);
#437=SURFACE_SIDE_STYLE('',(#438));
#438=SURFACE_STYLE_FILL_AREA(#439);
#439=FILL_AREA_STYLE('',(#440));
#440=FILL_AREA_STYLE_COLOUR('',#441);
#441=COLOUR_RGB('',0.63921568627451,0.63921568627451,0.662745098039216);
ENDSEC;
END-ISO-10303-21;
