                                                                        S      1
,,,6H700040,22HAutodesk Inventor 2021,7Hunknown,32,38,7,99,15,,1.,2,2HMMG      1
,1,0.08,15H20221010.085249,0.01,10000.,13HMrówczyńska,,11,0,15H2014081G      2
9.090651;                                                               G      3
     186       1                                                00000000D      1
     186            -145       1       0                               0D      2
     514       2                                                00010000D      3
     514                       1       1                               0D      4
     510       3                                                00010000D      5
     510            -145       1       1                               0D      6
     510       4                                                00010000D      7
     510            -145       1       1                               0D      8
     510       5                                                00010000D      9
     510            -145       1       1                               0D     10
     510       6                                                00010000D     11
     510            -145       1       1                               0D     12
     510       7                                                00010000D     13
     510            -145       1       1                               0D     14
     510       8                                                00010000D     15
     510            -145       1       1                               0D     16
     510       9                                                00010000D     17
     510            -145       1       1                               0D     18
     510      10                                                00010000D     19
     510            -145       1       1                               0D     20
     510      11                                                00010000D     21
     510            -145       1       1                               0D     22
     510      12                                                00010000D     23
     510            -145       1       1                               0D     24
     510      13                                                00010000D     25
     510            -145       1       1                               0D     26
     510      14                                                00010000D     27
     510            -145       1       1                               0D     28
     508      15                                                00010000D     29
     508                       1       1                               0D     30
     508      16                                                00010000D     31
     508                       1       1                               0D     32
     508      17                                                00010000D     33
     508                       1       1                               0D     34
     508      18                                                00010000D     35
     508                       1       1                               0D     36
     508      19                                                00010000D     37
     508                       1       1                               0D     38
     508      20                                                00010000D     39
     508                       1       1                               0D     40
     508      21                                                00010000D     41
     508                       1       1                               0D     42
     508      22                                                00010000D     43
     508                       1       1                               0D     44
     508      23                                                00010000D     45
     508                       1       1                               0D     46
     508      24                                                00010000D     47
     508                       1       1                               0D     48
     508      25                                                00010000D     49
     508                       3       1                               0D     50
     508      28                                                00010000D     51
     508                       3       1                               0D     52
     126      31                                                00010000D     53
     126       0               2       0                               0D     54
     126      33                                                00010000D     55
     126       0               2       0                               0D     56
     126      35                                                00010000D     57
     126       0               2       0                               0D     58
     126      37                                                00010000D     59
     126       0               2       0                               0D     60
     126      39                                                00010000D     61
     126       0               3       0                               0D     62
     126      42                                                00010000D     63
     126       0               2       0                               0D     64
     126      44                                                00010000D     65
     126       0               3       0                               0D     66
     126      47                                                00010000D     67
     126       0               2       0                               0D     68
     126      49                                                00010000D     69
     126       0               2       0                               0D     70
     126      51                                                00010000D     71
     126       0               2       0                               0D     72
     126      53                                                00010000D     73
     126       0               3       0                               0D     74
     126      56                                                00010000D     75
     126       0               2       0                               0D     76
     126      58                                                00010000D     77
     126       0               3       0                               0D     78
     126      61                                                00010000D     79
     126       0               4       0                               0D     80
     126      65                                                00010000D     81
     126       0               2       0                               0D     82
     126      67                                                00010000D     83
     126       0               4       0                               0D     84
     126      71                                                00010000D     85
     126       0               2       0                               0D     86
     126      73                                                00010000D     87
     126       0               2       0                               0D     88
     126      75                                                00010000D     89
     126       0               2       0                               0D     90
     126      77                                                00010000D     91
     126       0               3       0                               0D     92
     126      80                                                00010000D     93
     126       0               2       0                               0D     94
     126      82                                                00010000D     95
     126       0               3       0                               0D     96
     126      85                                                00010000D     97
     126       0               3       0                               0D     98
     126      88                                                00010000D     99
     126       0               2       0                               0D    100
     126      90                                                00010000D    101
     126       0               3       0                               0D    102
     126      93                                                00010000D    103
     126       0               2       0                               0D    104
     126      95                                                00010000D    105
     126       0               2       0                               0D    106
     126      97                                                00010000D    107
     126       0               2       0                               0D    108
     126      99                                                00010000D    109
     126       0               3       0                               0D    110
     126     102                                                00010000D    111
     126       0               3       0                               0D    112
     128     105                                                00010000D    113
     128       0    -145       5       0                               0D    114
     128     110                                                00010000D    115
     128       0    -145       6       0                               0D    116
     128     116                                                00010000D    117
     128       0    -145       4       0                               0D    118
     128     120                                                00010000D    119
     128       0    -145       4       0                               0D    120
     128     124                                                00010000D    121
     128       0    -145       5       0                               0D    122
     128     129                                                00010000D    123
     128       0    -145       4       0                               0D    124
     128     133                                                00010000D    125
     128       0    -145       5       0                               0D    126
     128     138                                                00010000D    127
     128       0    -145       3       0                               0D    128
     128     141                                                00010000D    129
     128       0    -145       5       0                               0D    130
     128     146                                                00010000D    131
     128       0    -145       7       0                               0D    132
     128     153                                                00010000D    133
     128       0    -145       4       0                               0D    134
     128     157                                                00010000D    135
     128       0    -145       3       0                               0D    136
     502     160                                                00010000D    137
     502                       5       1                               0D    138
     504     165                                                00010001D    139
     504                       8       1                               0D    140
     406     173                                                00000000D    141
     406                       1      15                               0D    142
     314     174                                                00000200D    143
     314                       1       0                               0D    144
     314     175                                                00000200D    145
     314                       1       0                               0D    146
186,3,1,0,0,1,141;                                                     1P      1
514,12,5,1,7,1,9,1,11,1,13,1,15,1,17,1,19,1,21,1,23,1,25,1,27,1;       3P      2
510,113,1,1,29;                                                        5P      3
510,115,1,1,31;                                                        7P      4
510,117,1,1,33;                                                        9P      5
510,119,1,1,35;                                                       11P      6
510,121,1,1,37;                                                       13P      7
510,123,1,1,39;                                                       15P      8
510,125,1,1,41;                                                       17P      9
510,127,1,1,43;                                                       19P     10
510,129,1,1,45;                                                       21P     11
510,131,1,1,47;                                                       23P     12
510,133,1,1,49;                                                       25P     13
510,135,1,1,51;                                                       27P     14
508,4,0,139,1,1,0,0,139,2,0,0,0,139,3,0,0,0,139,4,1,0;                29P     15
508,4,0,139,5,1,0,0,139,6,0,0,0,139,7,0,0,0,139,2,1,0;                31P     16
508,4,0,139,8,1,0,0,139,9,0,0,0,139,10,0,0,0,139,6,1,0;               33P     17
508,4,0,139,11,1,0,0,139,12,0,0,0,139,13,0,0,0,139,9,1,0;             35P     18
508,4,0,139,14,1,0,0,139,15,0,0,0,139,16,0,0,0,139,12,1,0;            37P     19
508,4,0,139,17,1,0,0,139,18,0,0,0,139,19,0,0,0,139,15,1,0;            39P     20
508,4,0,139,20,1,0,0,139,21,0,0,0,139,22,0,0,0,139,18,1,0;            41P     21
508,4,0,139,23,1,0,0,139,24,0,0,0,139,25,0,0,0,139,21,1,0;            43P     22
508,4,0,139,26,1,0,0,139,27,0,0,0,139,28,0,0,0,139,24,1,0;            45P     23
508,4,0,139,29,1,0,0,139,4,0,0,0,139,30,0,0,0,139,27,1,0;             47P     24
508,10,0,139,17,0,0,0,139,14,0,0,0,139,11,0,0,0,139,8,0,0,0,139,      49P     25
5,0,0,0,139,1,0,0,0,139,29,0,0,0,139,26,0,0,0,139,23,0,0,0,139,       49P     26
20,0,0;                                                               49P     27
508,10,0,139,19,1,0,0,139,22,1,0,0,139,25,1,0,0,139,28,1,0,0,         51P     28
139,30,1,0,0,139,3,1,0,0,139,7,1,0,0,139,10,1,0,0,139,13,1,0,0,       51P     29
139,16,1,0;                                                           51P     30
126,1,1,0,0,1,0,-0.25,-0.25,0.75,0.75,1.,1.,4.,-10.5,100.,-4.,        53P     31
-10.5,100.,-0.25,0.75,0.,0.,0.;                                       53P     32
126,1,1,0,0,1,0,0.,0.,1.,1.,1.,1.,-4.,-10.5,0.,-4.,-10.5,100.,        55P     33
0.,1.,0.,0.,0.;                                                       55P     34
126,1,1,0,0,1,0,-0.25,-0.25,0.75,0.75,1.,1.,4.,-10.5,0.,-4.,          57P     35
-10.5,0.,-0.25,0.75,0.,0.,0.;                                         57P     36
126,1,1,0,0,1,0,0.,0.,1.,1.,1.,1.,4.,-10.5,0.,4.,-10.5,100.,0.,       59P     37
1.,0.,0.,0.;                                                          59P     38
126,1,1,0,0,1,0,-1.41176470588235,-1.41176470588235,                  61P     39
-0.411764705882352,-0.411764705882352,1.,1.,-4.,-10.5,100.,           61P     40
-6.75,-8.,100.,-1.41176470588235,-0.411764705882352,0.,0.,0.;         61P     41
126,1,1,0,0,1,0,0.,0.,1.,1.,1.,1.,-6.75,-8.,0.,-6.75,-8.,100.,        63P     42
0.,1.,0.,0.,0.;                                                       63P     43
126,1,1,0,0,1,0,-1.41176470588235,-1.41176470588235,                  65P     44
-0.411764705882352,-0.411764705882352,1.,1.,-4.,-10.5,0.,-6.75,       65P     45
-8.,0.,-1.41176470588235,-0.411764705882352,0.,0.,0.;                 65P     46
126,1,1,0,0,1,0,-1.09375,-1.09375,-0.09375,-0.09375,1.,1.,-6.75,      67P     47
-8.,100.,-6.75,0.,100.,-1.09375,-0.09375,0.,0.,0.;                    67P     48
126,1,1,0,0,1,0,0.,0.,1.,1.,1.,1.,-6.75,0.,0.,-6.75,0.,100.,0.,       69P     49
1.,0.,0.,0.;                                                          69P     50
126,1,1,0,0,1,0,-1.09375,-1.09375,-0.09375,-0.09375,1.,1.,-6.75,      71P     51
-8.,0.,-6.75,0.,0.,-1.09375,-0.09375,0.,0.,0.;                        71P     52
126,1,1,0,0,1,0,-1.22727272727273,-1.22727272727273,                  73P     53
-0.227272727272727,-0.227272727272727,1.,1.,-6.75,0.,100.,-4.,        73P     54
0.,100.,-1.22727272727273,-0.227272727272727,0.,0.,0.;                73P     55
126,1,1,0,0,1,0,0.,0.,1.,1.,1.,1.,-4.,0.,0.,-4.,0.,100.,0.,1.,        75P     56
0.,0.,0.;                                                             75P     57
126,1,1,0,0,1,0,-1.22727272727273,-1.22727272727273,                  77P     58
-0.227272727272727,-0.227272727272727,1.,1.,-6.75,0.,0.,-4.,0.,       77P     59
0.,-1.22727272727273,-0.227272727272727,0.,0.,0.;                     77P     60
126,1,1,0,0,1,0,-0.161016949152542,-0.161016949152542,                79P     61
0.838983050847458,0.838983050847458,1.,1.,-4.,                        79P     62
-5.55111512312578D-16,100.,-4.,29.5,100.,-0.161016949152542,          79P     63
0.838983050847458,0.,0.,0.;                                           79P     64
126,1,1,0,0,1,0,0.,0.,1.,1.,1.,1.,-4.,29.5,0.,-4.,29.5,100.,0.,       81P     65
1.,0.,0.,0.;                                                          81P     66
126,1,1,0,0,1,0,-0.161016949152542,-0.161016949152542,                83P     67
0.838983050847458,0.838983050847458,1.,1.,-4.,                        83P     68
-5.55111512312578D-16,0.,-4.,29.5,0.,-0.161016949152542,              83P     69
0.838983050847458,0.,0.,0.;                                           83P     70
126,1,1,0,0,1,0,-0.25,-0.25,0.75,0.75,1.,1.,-4.,29.5,100.,4.,         85P     71
29.5,100.,-0.25,0.75,0.,0.,0.;                                        85P     72
126,1,1,0,0,1,0,0.,0.,1.,1.,1.,1.,4.,29.5,0.,4.,29.5,100.,0.,1.,      87P     73
0.,0.,0.;                                                             87P     74
126,1,1,0,0,1,0,-0.25,-0.25,0.75,0.75,1.,1.,-4.,29.5,0.,4.,29.5,      89P     75
0.,-0.25,0.75,0.,0.,0.;                                               89P     76
126,1,1,0,0,1,0,-0.338983050847458,-0.338983050847458,                91P     77
0.661016949152542,0.661016949152542,1.,1.,4.,29.5,100.,4.,0.,         91P     78
100.,-0.338983050847458,0.661016949152542,0.,0.,0.;                   91P     79
126,1,1,0,0,1,0,0.,0.,1.,1.,1.,1.,4.,0.,0.,4.,0.,100.,0.,1.,0.,       93P     80
0.,0.;                                                                93P     81
126,1,1,0,0,1,0,-0.338983050847458,-0.338983050847458,                95P     82
0.661016949152542,0.661016949152542,1.,1.,4.,29.5,0.,4.,0.,0.,        95P     83
-0.338983050847458,0.661016949152542,0.,0.,0.;                        95P     84
126,1,1,0,0,1,0,0.727272727272727,0.727272727272727,                  97P     85
1.72727272727273,1.72727272727273,1.,1.,4.,0.,100.,6.75,0.,100.,      97P     86
0.727272727272727,1.72727272727273,0.,0.,0.;                          97P     87
126,1,1,0,0,1,0,0.,0.,1.,1.,1.,1.,6.75,0.,0.,6.75,0.,100.,0.,1.,      99P     88
0.,0.,0.;                                                             99P     89
126,1,1,0,0,1,0,0.727272727272727,0.727272727272727,                 101P     90
1.72727272727273,1.72727272727273,1.,1.,4.,0.,0.,6.75,0.,0.,         101P     91
0.727272727272727,1.72727272727273,0.,0.,0.;                         101P     92
126,1,1,0,0,1,0,0.59375,0.59375,1.59375,1.59375,1.,1.,6.75,0.,       103P     93
100.,6.75,-8.,100.,0.59375,1.59375,0.,0.,0.;                         103P     94
126,1,1,0,0,1,0,0.,0.,1.,1.,1.,1.,6.75,-8.,0.,6.75,-8.,100.,0.,      105P     95
1.,0.,0.,0.;                                                         105P     96
126,1,1,0,0,1,0,0.59375,0.59375,1.59375,1.59375,1.,1.,6.75,0.,       107P     97
0.,6.75,-8.,0.,0.59375,1.59375,0.,0.,0.;                             107P     98
126,1,1,0,0,1,0,0.911764705882351,0.911764705882351,                 109P     99
1.91176470588235,1.91176470588235,1.,1.,6.75,-8.,100.,4.,-10.5,      109P    100
100.,0.911764705882351,1.91176470588235,0.,0.,0.;                    109P    101
126,1,1,0,0,1,0,0.911764705882351,0.911764705882351,                 111P    102
1.91176470588235,1.91176470588235,1.,1.,6.75,-8.,0.,4.,-10.5,0.,     111P    103
0.911764705882351,1.91176470588235,0.,0.,0.;                         111P    104
128,1,1,1,1,0,0,1,0,0,-100.001,-100.001,0.00100000000000477,         113P    105
0.00100000000000477,-8.001,-8.001,0.001,0.001,1.,1.,1.,1.,           113P    106
-4.001,-10.5,100.001,-4.001,-10.5,-0.001,4.001,-10.5,100.001,        113P    107
4.001,-10.5,-0.000999999999997669,-100.001,0.00100000000000477,      113P    108
-8.001,0.001;                                                        113P    109
128,1,1,1,1,0,0,1,0,0,-0.001,-0.001,100.001,100.001,-0.001,          115P    110
-0.001,3.71751718682963,3.71751718682963,1.,1.,1.,1.,                115P    111
-3.9992600599266,-10.500672672794,-0.001,-3.9992600599266,           115P    112
-10.500672672794,100.001,-6.7507399400734,-7.999327327206,           115P    113
-0.001,-6.7507399400734,-7.999327327206,100.001,-0.001,100.001,      115P    114
-0.001,3.71751718682963;                                             115P    115
128,1,1,1,1,0,0,1,0,0,-0.001,-0.001,100.001,100.001,-0.001,          117P    116
-0.001,8.001,8.001,1.,1.,1.,1.,-6.75,-8.001,-0.001,-6.75,-8.001,     117P    117
100.001,-6.75,0.00099999999999989,-0.001,-6.75,                      117P    118
0.00099999999999989,100.001,-0.001,100.001,-0.001,8.001;             117P    119
128,1,1,1,1,0,0,1,0,0,-0.001,-0.001,100.001,100.001,-0.001,          119P    120
-0.001,2.751,2.751,1.,1.,1.,1.,-6.751,0.,-0.001,-6.751,0.,           119P    121
100.001,-3.999,0.,-0.001,-3.999,0.,100.001,-0.001,100.001,           119P    122
-0.001,2.751;                                                        119P    123
128,1,1,1,1,0,0,1,0,0,-0.001,-0.001,100.001,100.001,                 121P    124
-0.00100000000000056,-0.00100000000000056,29.501,29.501,1.,1.,       121P    125
1.,1.,-4.,-0.00100000000000056,-0.001,-4.,-0.00100000000000056,      121P    126
100.001,-4.,29.501,-0.001,-4.,29.501,100.001,-0.001,100.001,         121P    127
-0.00100000000000056,29.501;                                         121P    128
128,1,1,1,1,0,0,1,0,0,-0.001,-0.001,100.001,100.001,-0.001,          123P    129
-0.001,8.001,8.001,1.,1.,1.,1.,-4.001,29.5,-0.001,-4.001,29.5,       123P    130
100.001,4.001,29.5,-0.001,4.001,29.5,100.001,-0.001,100.001,         123P    131
-0.001,8.001;                                                        123P    132
128,1,1,1,1,0,0,1,0,0,-100.001,-100.001,0.00100000000000477,         125P    133
0.00100000000000477,-29.501,-29.501,0.001,0.001,1.,1.,1.,1.,4.,      125P    134
-0.00100000000000211,100.001,4.,-0.00100000000000211,-0.001,4.,      125P    135
29.501,100.001,4.,29.501,-0.000999999999997669,-100.001,             125P    136
0.00100000000000477,-29.501,0.001;                                   125P    137
128,1,1,1,1,0,0,1,0,0,-0.001,-0.001,100.001,100.001,-0.001,          127P    138
-0.001,2.751,2.751,1.,1.,1.,1.,3.999,0.,-0.001,3.999,0.,100.001,     127P    139
6.751,0.,-0.001,6.751,0.,100.001,-0.001,100.001,-0.001,2.751;        127P    140
128,1,1,1,1,0,0,1,0,0,-100.001,-100.001,0.00100000000000477,         129P    141
0.00100000000000477,-8.001,-8.001,0.001,0.001,1.,1.,1.,1.,6.75,      129P    142
-8.001,100.001,6.75,-8.001,-0.001,6.75,0.001,100.001,6.75,           129P    143
0.00099999999999989,-0.000999999999997669,-100.001,                  129P    144
0.00100000000000477,-8.001,0.001;                                    129P    145
128,1,1,1,1,0,0,1,0,0,-100.001,-100.001,0.00100000000000477,         131P    146
0.00100000000000477,-3.71751718682963,-3.71751718682963,             131P    147
0.00100000000000111,0.00100000000000111,1.,1.,1.,1.,                 131P    148
3.9992600599266,-10.500672672794,100.001,3.9992600599266,            131P    149
-10.500672672794,-0.001,6.7507399400734,-7.999327327206,100.001,     131P    150
6.7507399400734,-7.999327327206,-0.000999999999997669,-100.001,      131P    151
0.00100000000000477,-3.71751718682963,0.00100000000000111;           131P    152
128,1,1,1,1,0,0,1,0,0,-6.751,-6.751,6.751,6.751,-20.001,-20.001,     133P    153
20.001,20.001,1.,1.,1.,1.,-6.751,-10.501,100.,6.751,-10.501,         133P    154
100.,-6.751,29.501,100.,6.751,29.501,100.,-6.751,6.751,-20.001,      133P    155
20.001;                                                              133P    156
128,1,1,1,1,0,0,1,0,0,-6.751,-6.751,6.751,6.751,-20.001,-20.001,     135P    157
20.001,20.001,1.,1.,1.,1.,6.751,-10.501,0.,-6.751,-10.501,0.,        135P    158
6.751,29.501,0.,-6.751,29.501,0.,-6.751,6.751,-20.001,20.001;        135P    159
502,20,4.,-10.5,100.,-4.,-10.5,100.,-4.,-10.5,0.,4.,-10.5,0.,        137P    160
-6.75,-8.,100.,-6.75,-8.,0.,-6.75,0.,100.,-6.75,0.,0.,-4.,0.,        137P    161
100.,-4.,0.,0.,-4.,29.5,100.,-4.,29.5,0.,4.,29.5,100.,4.,29.5,       137P    162
0.,4.,0.,100.,4.,0.,0.,6.75,0.,100.,6.75,0.,0.,6.75,-8.,100.,        137P    163
6.75,-8.,0.;                                                         137P    164
504,30,53,137,1,137,2,55,137,3,137,2,57,137,4,137,3,59,137,4,        139P    165
137,1,61,137,2,137,5,63,137,6,137,5,65,137,3,137,6,67,137,5,137,     139P    166
7,69,137,8,137,7,71,137,6,137,8,73,137,7,137,9,75,137,10,137,9,      139P    167
77,137,8,137,10,79,137,9,137,11,81,137,12,137,11,83,137,10,137,      139P    168
12,85,137,11,137,13,87,137,14,137,13,89,137,12,137,14,91,137,13,     139P    169
137,15,93,137,16,137,15,95,137,14,137,16,97,137,15,137,17,99,        139P    170
137,18,137,17,101,137,16,137,18,103,137,17,137,19,105,137,20,        139P    171
137,19,107,137,18,137,20,109,137,19,137,1,111,137,20,137,4;          139P    172
406,1,7HBryła1;                                                     141P    173
314,74.9019607843137,74.9019607843137,74.9019607843137,;             143P    174
314,52.9411764705882,52.9411764705882,52.9411764705882,;             145P    175
S      1G      3D    146P    175                                        T      1
