                                                                        S      1
,,,6H700032,22HAutodesk Inventor 2021,7Hunknown,32,38,7,99,15,,1.,2,2HMMG      1
,1,0.08,15H20221010.085412,0.01,10000.,13HMrówczyńska,,11,0,15H2014081G      2
9.090557;                                                               G      3
     186       1                                                00000000D      1
     186            -145       1       0                               0D      2
     514       2                                                00010000D      3
     514                       1       1                               0D      4
     510       3                                                00010000D      5
     510            -145       1       1                               0D      6
     510       4                                                00010000D      7
     510            -145       1       1                               0D      8
     510       5                                                00010000D      9
     510            -145       1       1                               0D     10
     510       6                                                00010000D     11
     510            -145       1       1                               0D     12
     510       7                                                00010000D     13
     510            -145       1       1                               0D     14
     510       8                                                00010000D     15
     510            -145       1       1                               0D     16
     510       9                                                00010000D     17
     510            -145       1       1                               0D     18
     510      10                                                00010000D     19
     510            -145       1       1                               0D     20
     510      11                                                00010000D     21
     510            -145       1       1                               0D     22
     510      12                                                00010000D     23
     510            -145       1       1                               0D     24
     510      13                                                00010000D     25
     510            -145       1       1                               0D     26
     510      14                                                00010000D     27
     510            -145       1       1                               0D     28
     508      15                                                00010000D     29
     508                       1       1                               0D     30
     508      16                                                00010000D     31
     508                       1       1                               0D     32
     508      17                                                00010000D     33
     508                       1       1                               0D     34
     508      18                                                00010000D     35
     508                       1       1                               0D     36
     508      19                                                00010000D     37
     508                       1       1                               0D     38
     508      20                                                00010000D     39
     508                       1       1                               0D     40
     508      21                                                00010000D     41
     508                       1       1                               0D     42
     508      22                                                00010000D     43
     508                       1       1                               0D     44
     508      23                                                00010000D     45
     508                       1       1                               0D     46
     508      24                                                00010000D     47
     508                       1       1                               0D     48
     508      25                                                00010000D     49
     508                       3       1                               0D     50
     508      28                                                00010000D     51
     508                       3       1                               0D     52
     126      31                                                00010000D     53
     126       0               2       0                               0D     54
     126      33                                                00010000D     55
     126       0               2       0                               0D     56
     126      35                                                00010000D     57
     126       0               2       0                               0D     58
     126      37                                                00010000D     59
     126       0               2       0                               0D     60
     126      39                                                00010000D     61
     126       0               3       0                               0D     62
     126      42                                                00010000D     63
     126       0               2       0                               0D     64
     126      44                                                00010000D     65
     126       0               3       0                               0D     66
     126      47                                                00010000D     67
     126       0               3       0                               0D     68
     126      50                                                00010000D     69
     126       0               2       0                               0D     70
     126      52                                                00010000D     71
     126       0               3       0                               0D     72
     126      55                                                00010000D     73
     126       0               2       0                               0D     74
     126      57                                                00010000D     75
     126       0               2       0                               0D     76
     126      59                                                00010000D     77
     126       0               2       0                               0D     78
     126      61                                                00010000D     79
     126       0               3       0                               0D     80
     126      64                                                00010000D     81
     126       0               2       0                               0D     82
     126      66                                                00010000D     83
     126       0               3       0                               0D     84
     126      69                                                00010000D     85
     126       0               3       0                               0D     86
     126      72                                                00010000D     87
     126       0               2       0                               0D     88
     126      74                                                00010000D     89
     126       0               3       0                               0D     90
     126      77                                                00010000D     91
     126       0               2       0                               0D     92
     126      79                                                00010000D     93
     126       0               2       0                               0D     94
     126      81                                                00010000D     95
     126       0               2       0                               0D     96
     126      83                                                00010000D     97
     126       0               3       0                               0D     98
     126      86                                                00010000D     99
     126       0               2       0                               0D    100
     126      88                                                00010000D    101
     126       0               3       0                               0D    102
     126      91                                                00010000D    103
     126       0               2       0                               0D    104
     126      93                                                00010000D    105
     126       0               2       0                               0D    106
     126      95                                                00010000D    107
     126       0               2       0                               0D    108
     126      97                                                00010000D    109
     126       0               3       0                               0D    110
     126     100                                                00010000D    111
     126       0               3       0                               0D    112
     128     103                                                00010000D    113
     128       0    -145       4       0                               0D    114
     128     107                                                00010000D    115
     128       0    -145       4       0                               0D    116
     128     111                                                00010000D    117
     128       0    -145       4       0                               0D    118
     128     115                                                00010000D    119
     128       0    -145       4       0                               0D    120
     128     119                                                00010000D    121
     128       0    -145       5       0                               0D    122
     128     124                                                00010000D    123
     128       0    -145       3       0                               0D    124
     128     127                                                00010000D    125
     128       0    -145       5       0                               0D    126
     128     132                                                00010000D    127
     128       0    -145       7       0                               0D    128
     128     139                                                00010000D    129
     128       0    -145       5       0                               0D    130
     128     144                                                00010000D    131
     128       0    -145       6       0                               0D    132
     128     150                                                00010000D    133
     128       0    -145       4       0                               0D    134
     128     154                                                00010000D    135
     128       0    -145       3       0                               0D    136
     502     157                                                00010000D    137
     502                       5       1                               0D    138
     504     162                                                00010001D    139
     504                       8       1                               0D    140
     406     170                                                00000000D    141
     406                       1      15                               0D    142
     314     171                                                00000200D    143
     314                       1       0                               0D    144
     314     172                                                00000200D    145
     314                       1       0                               0D    146
186,3,1,0,0,1,141;                                                     1P      1
514,12,5,1,7,1,9,1,11,1,13,1,15,1,17,1,19,1,21,1,23,1,25,1,27,1;       3P      2
510,113,1,1,29;                                                        5P      3
510,115,1,1,31;                                                        7P      4
510,117,1,1,33;                                                        9P      5
510,119,1,1,35;                                                       11P      6
510,121,1,1,37;                                                       13P      7
510,123,1,1,39;                                                       15P      8
510,125,1,1,41;                                                       17P      9
510,127,1,1,43;                                                       19P     10
510,129,1,1,45;                                                       21P     11
510,131,1,1,47;                                                       23P     12
510,133,1,1,49;                                                       25P     13
510,135,1,1,51;                                                       27P     14
508,4,0,139,1,1,0,0,139,2,0,0,0,139,3,0,0,0,139,4,1,0;                29P     15
508,4,0,139,5,1,0,0,139,6,0,0,0,139,7,0,0,0,139,2,1,0;                31P     16
508,4,0,139,8,1,0,0,139,9,0,0,0,139,10,0,0,0,139,6,1,0;               33P     17
508,4,0,139,11,1,0,0,139,12,0,0,0,139,13,0,0,0,139,9,1,0;             35P     18
508,4,0,139,14,1,0,0,139,15,0,0,0,139,16,0,0,0,139,12,1,0;            37P     19
508,4,0,139,17,1,0,0,139,18,0,0,0,139,19,0,0,0,139,15,1,0;            39P     20
508,4,0,139,20,1,0,0,139,21,0,0,0,139,22,0,0,0,139,18,1,0;            41P     21
508,4,0,139,23,1,0,0,139,24,0,0,0,139,25,0,0,0,139,21,1,0;            43P     22
508,4,0,139,26,1,0,0,139,27,0,0,0,139,28,0,0,0,139,24,1,0;            45P     23
508,4,0,139,29,1,0,0,139,4,0,0,0,139,30,0,0,0,139,27,1,0;             47P     24
508,10,0,139,17,0,0,0,139,14,0,0,0,139,11,0,0,0,139,8,0,0,0,139,      49P     25
5,0,0,0,139,1,0,0,0,139,29,0,0,0,139,26,0,0,0,139,23,0,0,0,139,       49P     26
20,0,0;                                                               49P     27
508,10,0,139,19,1,0,0,139,22,1,0,0,139,25,1,0,0,139,28,1,0,0,         51P     28
139,30,1,0,0,139,3,1,0,0,139,7,1,0,0,139,10,1,0,0,139,13,1,0,0,       51P     29
139,16,1,0;                                                           51P     30
126,1,1,0,0,1,0,-0.84375,-0.84375,0.15625,0.15625,1.,1.,-6.75,        53P     31
-8.,100.,-6.75,0.,100.,-0.84375,0.15625,0.,0.,0.;                     53P     32
126,1,1,0,0,1,0,0.,0.,1.,1.,1.,1.,-6.75,0.,0.,-6.75,0.,100.,0.,       55P     33
1.,0.,0.,0.;                                                          55P     34
126,1,1,0,0,1,0,-0.84375,-0.84375,0.15625,0.15625,1.,1.,-6.75,        57P     35
-8.,0.,-6.75,0.,0.,-0.84375,0.15625,0.,0.,0.;                         57P     36
126,1,1,0,0,1,0,0.,0.,1.,1.,1.,1.,-6.75,-8.,0.,-6.75,-8.,100.,        59P     37
0.,1.,0.,0.,0.;                                                       59P     38
126,1,1,0,0,1,0,-1.22727272727273,-1.22727272727273,                  61P     39
-0.227272727272727,-0.227272727272727,1.,1.,-6.75,0.,100.,-4.,        61P     40
0.,100.,-1.22727272727273,-0.227272727272727,0.,0.,0.;                61P     41
126,1,1,0,0,1,0,0.,0.,1.,1.,1.,1.,-4.,0.,0.,-4.,0.,100.,0.,1.,        63P     42
0.,0.,0.;                                                             63P     43
126,1,1,0,0,1,0,-1.22727272727273,-1.22727272727273,                  65P     44
-0.227272727272727,-0.227272727272727,1.,1.,-6.75,0.,0.,-4.,0.,       65P     45
0.,-1.22727272727273,-0.227272727272727,0.,0.,0.;                     65P     46
126,1,1,0,0,1,0,-0.127906976744186,-0.127906976744186,                67P     47
0.872093023255814,0.872093023255814,1.,1.,-4.,0.,100.,-4.,21.5,       67P     48
100.,-0.127906976744186,0.872093023255814,0.,0.,0.;                   67P     49
126,1,1,0,0,1,0,0.,0.,1.,1.,1.,1.,-4.,21.5,0.,-4.,21.5,100.,0.,       69P     50
1.,0.,0.,0.;                                                          69P     51
126,1,1,0,0,1,0,-0.127906976744186,-0.127906976744186,                71P     52
0.872093023255814,0.872093023255814,1.,1.,-4.,0.,0.,-4.,21.5,0.,      71P     53
-0.127906976744186,0.872093023255814,0.,0.,0.;                        71P     54
126,1,1,0,0,1,0,-0.25,-0.25,0.75,0.75,1.,1.,-4.,21.5,100.,4.,         73P     55
21.5,100.,-0.25,0.75,0.,0.,0.;                                        73P     56
126,1,1,0,0,1,0,0.,0.,1.,1.,1.,1.,4.,21.5,0.,4.,21.5,100.,0.,1.,      75P     57
0.,0.,0.;                                                             75P     58
126,1,1,0,0,1,0,-0.25,-0.25,0.75,0.75,1.,1.,-4.,21.5,0.,4.,21.5,      77P     59
0.,-0.25,0.75,0.,0.,0.;                                               77P     60
126,1,1,0,0,1,0,-0.372093023255814,-0.372093023255814,                79P     61
0.627906976744186,0.627906976744186,1.,1.,4.,21.5,100.,4.,0.,         79P     62
100.,-0.372093023255814,0.627906976744186,0.,0.,0.;                   79P     63
126,1,1,0,0,1,0,0.,0.,1.,1.,1.,1.,4.,0.,0.,4.,0.,100.,0.,1.,0.,       81P     64
0.,0.;                                                                81P     65
126,1,1,0,0,1,0,-0.372093023255814,-0.372093023255814,                83P     66
0.627906976744186,0.627906976744186,1.,1.,4.,21.5,0.,4.,0.,0.,        83P     67
-0.372093023255814,0.627906976744186,0.,0.,0.;                        83P     68
126,1,1,0,0,1,0,0.727272727272727,0.727272727272727,                  85P     69
1.72727272727273,1.72727272727273,1.,1.,4.,0.,100.,6.75,0.,100.,      85P     70
0.727272727272727,1.72727272727273,0.,0.,0.;                          85P     71
126,1,1,0,0,1,0,0.,0.,1.,1.,1.,1.,6.75,0.,0.,6.75,0.,100.,0.,1.,      87P     72
0.,0.,0.;                                                             87P     73
126,1,1,0,0,1,0,0.727272727272727,0.727272727272727,                  89P     74
1.72727272727273,1.72727272727273,1.,1.,4.,0.,0.,6.75,0.,0.,          89P     75
0.727272727272727,1.72727272727273,0.,0.,0.;                          89P     76
126,1,1,0,0,1,0,0.34375,0.34375,1.34375,1.34375,1.,1.,6.75,0.,        91P     77
100.,6.75,-8.,100.,0.34375,1.34375,0.,0.,0.;                          91P     78
126,1,1,0,0,1,0,0.,0.,1.,1.,1.,1.,6.75,-8.,0.,6.75,-8.,100.,0.,       93P     79
1.,0.,0.,0.;                                                          93P     80
126,1,1,0,0,1,0,0.34375,0.34375,1.34375,1.34375,1.,1.,6.75,0.,        95P     81
0.,6.75,-8.,0.,0.34375,1.34375,0.,0.,0.;                              95P     82
126,1,1,0,0,1,0,0.549773755656108,0.549773755656108,                  97P     83
1.54977375565611,1.54977375565611,1.,1.,6.75,-8.,100.,4.,-10.5,       97P     84
100.,0.549773755656108,1.54977375565611,0.,0.,0.;                     97P     85
126,1,1,0,0,1,0,0.,0.,1.,1.,1.,1.,4.,-10.5,0.,4.,-10.5,100.,0.,       99P     86
1.,0.,0.,0.;                                                          99P     87
126,1,1,0,0,1,0,0.549773755656108,0.549773755656108,                 101P     88
1.54977375565611,1.54977375565611,1.,1.,6.75,-8.,0.,4.,-10.5,0.,     101P     89
0.549773755656108,1.54977375565611,0.,0.,0.;                         101P     90
126,1,1,0,0,1,0,-0.25,-0.25,0.75,0.75,1.,1.,4.,-10.5,100.,-4.,       103P     91
-10.5,100.,-0.25,0.75,0.,0.,0.;                                      103P     92
126,1,1,0,0,1,0,0.,0.,1.,1.,1.,1.,-4.,-10.5,0.,-4.,-10.5,100.,       105P     93
0.,1.,0.,0.,0.;                                                      105P     94
126,1,1,0,0,1,0,-0.25,-0.25,0.75,0.75,1.,1.,4.,-10.5,0.,-4.,         107P     95
-10.5,0.,-0.25,0.75,0.,0.,0.;                                        107P     96
126,1,1,0,0,1,0,-1.04977375565611,-1.04977375565611,                 109P     97
-0.0497737556561086,-0.0497737556561086,1.,1.,-4.,-10.5,100.,        109P     98
-6.75,-8.,100.,-1.04977375565611,-0.0497737556561086,0.,0.,0.;       109P     99
126,1,1,0,0,1,0,-1.04977375565611,-1.04977375565611,                 111P    100
-0.0497737556561086,-0.0497737556561086,1.,1.,-4.,-10.5,0.,          111P    101
-6.75,-8.,0.,-1.04977375565611,-0.0497737556561086,0.,0.,0.;         111P    102
128,1,1,1,1,0,0,1,0,0,-0.001,-0.001,100.001,100.001,-0.001,          113P    103
-0.001,8.001,8.001,1.,1.,1.,1.,-6.75,-8.001,-0.001,-6.75,-8.001,     113P    104
100.001,-6.75,0.00099999999999989,-0.001,-6.75,                      113P    105
0.00099999999999989,100.001,-0.001,100.001,-0.001,8.001;             113P    106
128,1,1,1,1,0,0,1,0,0,-0.001,-0.001,100.001,100.001,-0.001,          115P    107
-0.001,2.751,2.751,1.,1.,1.,1.,-6.751,0.,-0.001,-6.751,0.,           115P    108
100.001,-3.999,0.,-0.001,-3.999,0.,100.001,-0.001,100.001,           115P    109
-0.001,2.751;                                                        115P    110
128,1,1,1,1,0,0,1,0,0,-0.001,-0.001,100.001,100.001,-0.001,          117P    111
-0.001,21.501,21.501,1.,1.,1.,1.,-4.,-0.001,-0.001,-4.,-0.001,       117P    112
100.001,-4.,21.501,-0.001,-4.,21.501,100.001,-0.001,100.001,         117P    113
-0.001,21.501;                                                       117P    114
128,1,1,1,1,0,0,1,0,0,-0.001,-0.001,100.001,100.001,-0.001,          119P    115
-0.001,8.001,8.001,1.,1.,1.,1.,-4.001,21.5,-0.001,-4.001,21.5,       119P    116
100.001,4.001,21.5,-0.001,4.001,21.5,100.001,-0.001,100.001,         119P    117
-0.001,8.001;                                                        119P    118
128,1,1,1,1,0,0,1,0,0,-100.001,-100.001,0.00100000000000477,         121P    119
0.00100000000000477,-21.501,-21.501,0.001,0.001,1.,1.,1.,1.,4.,      121P    120
-0.00100000000000211,100.001,4.,-0.00100000000000211,-0.001,4.,      121P    121
21.501,100.001,4.,21.501,-0.000999999999997669,-100.001,             121P    122
0.00100000000000477,-21.501,0.001;                                   121P    123
128,1,1,1,1,0,0,1,0,0,-0.001,-0.001,100.001,100.001,-0.001,          123P    124
-0.001,2.751,2.751,1.,1.,1.,1.,3.999,0.,-0.001,3.999,0.,100.001,     123P    125
6.751,0.,-0.001,6.751,0.,100.001,-0.001,100.001,-0.001,2.751;        123P    126
128,1,1,1,1,0,0,1,0,0,-100.001,-100.001,0.00100000000000477,         125P    127
0.00100000000000477,-8.001,-8.001,0.001,0.001,1.,1.,1.,1.,6.75,      125P    128
-8.001,100.001,6.75,-8.001,-0.001,6.75,0.001,100.001,6.75,           125P    129
0.00099999999999989,-0.000999999999997669,-100.001,                  125P    130
0.00100000000000477,-8.001,0.001;                                    125P    131
128,1,1,1,1,0,0,1,0,0,-100.001,-100.001,0.00100000000000477,         127P    132
0.00100000000000477,-3.71751718682963,-3.71751718682963,0.001,       127P    133
0.001,1.,1.,1.,1.,3.9992600599266,-10.500672672794,100.001,          127P    134
3.9992600599266,-10.500672672794,-0.001,6.7507399400734,             127P    135
-7.999327327206,100.001,6.7507399400734,-7.999327327206,             127P    136
-0.000999999999997669,-100.001,0.00100000000000477,                  127P    137
-3.71751718682963,0.001;                                             127P    138
128,1,1,1,1,0,0,1,0,0,-100.001,-100.001,0.00100000000000477,         129P    139
0.00100000000000477,-8.001,-8.001,0.001,0.001,1.,1.,1.,1.,           129P    140
-4.001,-10.5,100.001,-4.001,-10.5,-0.001,4.001,-10.5,100.001,        129P    141
4.001,-10.5,-0.000999999999997669,-100.001,0.00100000000000477,      129P    142
-8.001,0.001;                                                        129P    143
128,1,1,1,1,0,0,1,0,0,-0.001,-0.001,100.001,100.001,-0.001,          131P    144
-0.001,3.71751718682963,3.71751718682963,1.,1.,1.,1.,                131P    145
-3.9992600599266,-10.500672672794,-0.001,-3.9992600599266,           131P    146
-10.500672672794,100.001,-6.7507399400734,-7.999327327206,           131P    147
-0.001,-6.7507399400734,-7.999327327206,100.001,-0.001,100.001,      131P    148
-0.001,3.71751718682963;                                             131P    149
128,1,1,1,1,0,0,1,0,0,-6.751,-6.751,6.751,6.751,-16.001,-16.001,     133P    150
16.001,16.001,1.,1.,1.,1.,-6.751,-10.501,100.,6.751,-10.501,         133P    151
100.,-6.751,21.501,100.,6.751,21.501,100.,-6.751,6.751,-16.001,      133P    152
16.001;                                                              133P    153
128,1,1,1,1,0,0,1,0,0,-6.751,-6.751,6.751,6.751,-16.001,-16.001,     135P    154
16.001,16.001,1.,1.,1.,1.,6.751,-10.501,0.,-6.751,-10.501,0.,        135P    155
6.751,21.501,0.,-6.751,21.501,0.,-6.751,6.751,-16.001,16.001;        135P    156
502,20,-6.75,-8.,100.,-6.75,0.,100.,-6.75,0.,0.,-6.75,-8.,0.,        137P    157
-4.,0.,100.,-4.,0.,0.,-4.,21.5,100.,-4.,21.5,0.,4.,21.5,100.,4.,     137P    158
21.5,0.,4.,0.,100.,4.,0.,0.,6.75,0.,100.,6.75,0.,0.,6.75,-8.,        137P    159
100.,6.75,-8.,0.,4.,-10.5,100.,4.,-10.5,0.,-4.,-10.5,100.,-4.,       137P    160
-10.5,0.;                                                            137P    161
504,30,53,137,1,137,2,55,137,3,137,2,57,137,4,137,3,59,137,4,        139P    162
137,1,61,137,2,137,5,63,137,6,137,5,65,137,3,137,6,67,137,5,137,     139P    163
7,69,137,8,137,7,71,137,6,137,8,73,137,7,137,9,75,137,10,137,9,      139P    164
77,137,8,137,10,79,137,9,137,11,81,137,12,137,11,83,137,10,137,      139P    165
12,85,137,11,137,13,87,137,14,137,13,89,137,12,137,14,91,137,13,     139P    166
137,15,93,137,16,137,15,95,137,14,137,16,97,137,15,137,17,99,        139P    167
137,18,137,17,101,137,16,137,18,103,137,17,137,19,105,137,20,        139P    168
137,19,107,137,18,137,20,109,137,19,137,1,111,137,20,137,4;          139P    169
406,1,7HBryła1;                                                     141P    170
314,74.9019607843137,74.9019607843137,74.9019607843137,;             143P    171
314,52.9411764705882,52.9411764705882,52.9411764705882,;             145P    172
S      1G      3D    146P    172                                        T      1
