                                                                        S      1
,,,6H700020,22HAutodesk Inventor 2021,7Hunknown,32,38,7,99,15,,1.,2,2HMMG      1
,1,0.08,15H20221010.062826,0.01,10000.,13HMrówczyńska,,11,0,15H2010090G      2
5.122326;                                                               G      3
     186       1                                                00000000D      1
     186            -121       1       0                               0D      2
     514       2                                                00010000D      3
     514                       1       1                               0D      4
     510       3                                                00010000D      5
     510            -121       1       1                               0D      6
     510       4                                                00010000D      7
     510            -121       1       1                               0D      8
     510       5                                                00010000D      9
     510            -121       1       1                               0D     10
     510       6                                                00010000D     11
     510            -121       1       1                               0D     12
     510       7                                                00010000D     13
     510            -121       1       1                               0D     14
     510       8                                                00010000D     15
     510            -121       1       1                               0D     16
     510       9                                                00010000D     17
     510            -121       1       1                               0D     18
     510      10                                                00010000D     19
     510            -121       1       1                               0D     20
     510      11                                                00010000D     21
     510            -121       1       1                               0D     22
     508      12                                                00010000D     23
     508                       1       1                               0D     24
     508      13                                                00010000D     25
     508                       1       1                               0D     26
     508      14                                                00010000D     27
     508                       1       1                               0D     28
     508      15                                                00010000D     29
     508                       1       1                               0D     30
     508      16                                                00010000D     31
     508                       1       1                               0D     32
     508      17                                                00010000D     33
     508                       1       1                               0D     34
     508      18                                                00010000D     35
     508                       1       1                               0D     36
     508      19                                                00010000D     37
     508                       1       1                               0D     38
     508      20                                                00010000D     39
     508                       1       1                               0D     40
     508      21                                                00010000D     41
     508                       1       1                               0D     42
     508      22                                                00010000D     43
     508                       1       1                               0D     44
     508      23                                                00010000D     45
     508                       1       1                               0D     46
     508      24                                                00010000D     47
     508                       1       1                               0D     48
     508      25                                                00010000D     49
     508                       1       1                               0D     50
     508      26                                                00010000D     51
     508                       1       1                               0D     52
     126      27                                                00010000D     53
     126       0              10       0                               0D     54
     126      37                                                00010000D     55
     126       0               4       0                               0D     56
     126      41                                                00010000D     57
     126       0              10       0                               0D     58
     126      51                                                00010000D     59
     126       0              10       0                               0D     60
     126      61                                                00010000D     61
     126       0               4       0                               0D     62
     126      65                                                00010000D     63
     126       0              10       0                               0D     64
     126      75                                                00010000D     65
     126       0              10       0                               0D     66
     126      85                                                00010000D     67
     126       0               3       0                               0D     68
     126      88                                                00010000D     69
     126       0              10       0                               0D     70
     126      98                                                00010000D     71
     126       0               2       0                               0D     72
     126     100                                                00010000D     73
     126       0               2       0                               0D     74
     126     102                                                00010000D     75
     126       0               2       0                               0D     76
     126     104                                                00010000D     77
     126       0               2       0                               0D     78
     126     106                                                00010000D     79
     126       0               2       0                               0D     80
     126     108                                                00010000D     81
     126       0               2       0                               0D     82
     126     110                                                00010000D     83
     126       0               2       0                               0D     84
     126     112                                                00010000D     85
     126       0               2       0                               0D     86
     126     114                                                00010000D     87
     126       0               2       0                               0D     88
     126     116                                                00010000D     89
     126       0               2       0                               0D     90
     126     118                                                00010000D     91
     126       0               2       0                               0D     92
     126     120                                                00010000D     93
     126       0               2       0                               0D     94
     128     122                                                00010000D     95
     128       0    -121      18       0                               0D     96
     128     140                                                00010000D     97
     128       0    -121      18       0                               0D     98
     128     158                                                00010000D     99
     128       0    -121      18       0                               0D    100
     128     176                                                00010000D    101
     128       0    -121       4       0                               0D    102
     128     180                                                00010000D    103
     128       0    -121       4       0                               0D    104
     128     184                                                00010000D    105
     128       0    -121       4       0                               0D    106
     128     188                                                00010000D    107
     128       0    -121       5       0                               0D    108
     128     193                                                00010000D    109
     128       0    -121       4       0                               0D    110
     128     197                                                00010000D    111
     128       0    -121       4       0                               0D    112
     502     201                                                00010000D    113
     502                       4       1                               0D    114
     504     205                                                00010001D    115
     504                       6       1                               0D    116
     406     211                                                00000000D    117
     406                       1      15                               0D    118
     314     212                                                00000200D    119
     314                       1       0                               0D    120
     314     213                                                00000200D    121
     314                       1       0                               0D    122
186,3,1,0,0,1,117;                                                     1P      1
514,9,5,1,7,1,9,1,11,1,13,1,15,1,17,1,19,1,21,1;                       3P      2
510,95,1,1,23;                                                         5P      3
510,97,1,1,25;                                                         7P      4
510,99,1,1,27;                                                         9P      5
510,101,1,1,29;                                                       11P      6
510,103,1,1,31;                                                       13P      7
510,105,1,1,33;                                                       15P      8
510,107,1,1,35;                                                       17P      9
510,109,4,1,37,39,41,43;                                              19P     10
510,111,4,1,45,47,49,51;                                              21P     11
508,4,0,115,1,0,0,0,115,2,1,0,0,115,3,0,0,0,115,2,0,0;                23P     12
508,4,0,115,4,0,0,0,115,5,1,0,0,115,6,0,0,0,115,5,0,0;                25P     13
508,4,0,115,7,0,0,0,115,8,1,0,0,115,9,0,0,0,115,8,0,0;                27P     14
508,4,0,115,10,1,0,0,115,11,0,0,0,115,12,1,0,0,115,13,1,0;            29P     15
508,4,0,115,14,1,0,0,115,15,0,0,0,115,16,1,0,0,115,11,1,0;            31P     16
508,4,0,115,17,1,0,0,115,18,0,0,0,115,19,1,0,0,115,15,1,0;            33P     17
508,4,0,115,20,1,0,0,115,13,0,0,0,115,21,1,0,0,115,18,1,0;            35P     18
508,4,0,115,21,0,0,0,115,12,0,0,0,115,16,0,0,0,115,19,0,0;            37P     19
508,1,0,115,1,1,0;                                                    39P     20
508,1,0,115,4,1,0;                                                    41P     21
508,1,0,115,7,1,0;                                                    43P     22
508,4,0,115,10,0,0,0,115,20,0,0,0,115,17,0,0,0,115,14,0,0;            45P     23
508,1,0,115,3,1,0;                                                    47P     24
508,1,0,115,6,1,0;                                                    49P     25
508,1,0,115,9,1,0;                                                    51P     26
126,8,2,0,1,0,0,0.,0.,0.,1.5707963267949,1.5707963267949,             53P     27
3.14159265358979,3.14159265358979,4.71238898038469,                   53P     28
4.71238898038469,6.28318530717959,6.28318530717959,                   53P     29
6.28318530717959,1.,0.707106781186548,1.,0.707106781186548,1.,        53P     30
0.707106781186549,1.,0.707106781186548,1.,26.7,-3.03461D-14,0.,       53P     31
26.7,4.19999999999997,0.,22.5,4.19999999999997,0.,18.3,               53P     32
4.19999999999997,0.,18.3,-2.98317483443581D-14,0.,18.3,               53P     33
-4.20000000000003,0.,22.5,-4.20000000000003,0.,26.7,                  53P     34
-4.20000000000003,0.,26.7,-3.13748033112838D-14,0.,0.,                53P     35
6.28318530717959,0.,0.,0.;                                            53P     36
126,1,1,0,0,1,0,-0.238095238095238,-0.238095238095238,                55P     37
0.238095238095238,0.238095238095238,1.,1.,26.7,                       55P     38
-2.77202650826325D-14,0.,26.7,-2.77202650826325D-14,2.,               55P     39
-0.238095238095238,0.238095238095238,0.,0.,0.;                        55P     40
126,8,2,0,1,0,0,0.,0.,0.,1.5707963267949,1.5707963267949,             57P     41
3.14159265358979,3.14159265358979,4.71238898038469,                   57P     42
4.71238898038469,6.28318530717959,6.28318530717959,                   57P     43
6.28318530717959,1.,0.707106781186548,1.,0.707106781186548,1.,        57P     44
0.707106781186549,1.,0.707106781186548,1.,26.7,-3.03461D-14,2.,       57P     45
26.7,-4.20000000000003,2.,22.5,-4.20000000000003,2.,18.3,             57P     46
-4.20000000000003,2.,18.3,-3.08604516556419D-14,2.,18.3,              57P     47
4.19999999999997,2.,22.5,4.19999999999997,2.,26.7,                    57P     48
4.19999999999997,2.,26.7,-2.93173966887162D-14,2.,0.,                 57P     49
6.28318530717959,0.,0.,0.;                                            57P     50
126,8,2,0,1,0,0,0.,0.,0.,1.5707963267949,1.5707963267949,             59P     51
3.14159265358979,3.14159265358979,4.71238898038469,                   59P     52
4.71238898038469,6.28318530717959,6.28318530717959,                   59P     53
6.28318530717959,1.,0.707106781186548,1.,0.707106781186548,1.,        59P     54
0.707106781186548,1.,0.707106781186548,1.,-18.3,-3.03461D-14,0.,      59P     55
-18.3,4.19999999999997,0.,-22.5,4.19999999999997,0.,-26.7,            59P     56
4.19999999999997,0.,-26.7,-2.98317483443581D-14,0.,-26.7,             59P     57
-4.20000000000003,0.,-22.5,-4.20000000000003,0.,-18.3,                59P     58
-4.20000000000003,0.,-18.3,-3.13748033112838D-14,0.,0.,               59P     59
6.28318530717959,0.,0.,0.;                                            59P     60
126,1,1,0,0,1,0,-0.238095238095238,-0.238095238095238,                61P     61
0.238095238095238,0.238095238095238,1.,1.,-18.3,                      61P     62
-3.40006349173676D-14,0.,-18.3,-3.40006349173676D-14,2.,              61P     63
-0.238095238095238,0.238095238095238,0.,0.,0.;                        61P     64
126,8,2,0,1,0,0,0.,0.,0.,1.5707963267949,1.5707963267949,             63P     65
3.14159265358979,3.14159265358979,4.71238898038469,                   63P     66
4.71238898038469,6.28318530717959,6.28318530717959,                   63P     67
6.28318530717959,1.,0.707106781186548,1.,0.707106781186548,1.,        63P     68
0.707106781186548,1.,0.707106781186548,1.,-18.3,-3.03461D-14,2.,      63P     69
-18.3,-4.20000000000003,2.,-22.5,-4.20000000000003,2.,-26.7,          63P     70
-4.20000000000003,2.,-26.7,-3.08604516556419D-14,2.,-26.7,            63P     71
4.19999999999997,2.,-22.5,4.19999999999997,2.,-18.3,                  63P     72
4.19999999999997,2.,-18.3,-2.93173966887162D-14,2.,0.,                63P     73
6.28318530717959,0.,0.,0.;                                            63P     74
126,8,2,0,1,0,0,0.,0.,0.,1.5707963267949,1.5707963267949,             65P     75
3.14159265358979,3.14159265358979,4.71238898038469,                   65P     76
4.71238898038469,6.28318530717959,6.28318530717959,                   65P     77
6.28318530717959,1.,0.707106781186548,1.,0.707106781186547,1.,        65P     78
0.707106781186548,1.,0.707106781186547,1.,10.,-3.03461D-14,0.,        65P     79
10.,9.99999999999997,0.,1.06043303995737D-14,9.99999999999997,        65P     80
0.,-9.99999999999999,9.99999999999997,0.,-9.99999999999999,           65P     81
-2.91214532008526D-14,0.,-9.99999999999999,-10.,0.,                   65P     82
8.15503680127897D-15,-10.,0.,10.,-10.,0.,10.,                         65P     83
-3.27953935982947D-14,0.,0.,6.28318530717959,0.,0.,0.;                65P     84
126,1,1,0,0,1,0,-0.1,-0.1,0.1,0.1,1.,1.,10.,                          67P     85
-2.68604626239487D-14,0.,10.,-2.68604626239487D-14,2.,-0.1,0.1,       67P     86
0.,0.,0.;                                                             67P     87
126,8,2,0,1,0,0,0.,0.,0.,1.5707963267949,1.5707963267949,             69P     88
3.14159265358979,3.14159265358979,4.71238898038469,                   69P     89
4.71238898038469,6.28318530717959,6.28318530717959,                   69P     90
6.28318530717959,1.,0.707106781186548,1.,0.707106781186547,1.,        69P     91
0.707106781186548,1.,0.707106781186548,1.,10.,-3.03461D-14,2.,        69P     92
10.,-10.,2.,1.06043303995737D-14,-10.,2.,-9.99999999999999,-10.,      69P     93
2.,-9.99999999999999,-3.15707467991474D-14,2.,-9.99999999999999,      69P     94
9.99999999999997,2.,8.15503680127897D-15,9.99999999999997,2.,         69P     95
10.,9.99999999999997,2.,10.,-2.78968064017053D-14,2.,0.,              69P     96
6.28318530717959,0.,0.,0.;                                            69P     97
126,1,1,0,0,1,0,0.,0.,1.,1.,1.,1.,-45.,-22.5,2.,-45.,22.5,2.,0.,      71P     98
1.,0.,0.,0.;                                                          71P     99
126,1,1,0,0,1,0,0.,0.,1.,1.,1.,1.,-45.,22.5,0.,-45.,22.5,2.,0.,       73P    100
1.,0.,0.,0.;                                                          73P    101
126,1,1,0,0,1,0,0.,0.,1.,1.,1.,1.,-45.,22.5,0.,-45.,-22.5,0.,0.,      75P    102
1.,0.,0.,0.;                                                          75P    103
126,1,1,0,0,1,0,0.,0.,1.,1.,1.,1.,-45.,-22.5,0.,-45.,-22.5,2.,        77P    104
0.,1.,0.,0.,0.;                                                       77P    105
126,1,1,0,0,1,0,0.,0.,1.,1.,1.,1.,-45.,22.5,2.,45.,22.5,2.,0.,        79P    106
1.,0.,0.,0.;                                                          79P    107
126,1,1,0,0,1,0,0.,0.,1.,1.,1.,1.,45.,22.5,0.,45.,22.5,2.,0.,1.,      81P    108
0.,0.,0.;                                                             81P    109
126,1,1,0,0,1,0,0.,0.,1.,1.,1.,1.,45.,22.5,0.,-45.,22.5,0.,0.,        83P    110
1.,0.,0.,0.;                                                          83P    111
126,1,1,0,0,1,0,0.,0.,1.,1.,1.,1.,45.,22.5,2.,45.,-22.5,2.,0.,        85P    112
1.,0.,0.,0.;                                                          85P    113
126,1,1,0,0,1,0,0.,0.,1.,1.,1.,1.,45.,-22.5,0.,45.,-22.5,2.,0.,       87P    114
1.,0.,0.,0.;                                                          87P    115
126,1,1,0,0,1,0,0.,0.,1.,1.,1.,1.,45.,-22.5,0.,45.,22.5,0.,0.,        89P    116
1.,0.,0.,0.;                                                          89P    117
126,1,1,0,0,1,0,0.,0.,1.,1.,1.,1.,45.,-22.5,2.,-45.,-22.5,2.,0.,      91P    118
1.,0.,0.,0.;                                                          91P    119
126,1,1,0,0,1,0,0.,0.,1.,1.,1.,1.,-45.,-22.5,0.,45.,-22.5,0.,0.,      93P    120
1.,0.,0.,0.;                                                          93P    121
128,1,8,1,2,0,1,0,0,1,-0.238095238095238,-0.238095238095238,          95P    122
0.238095238095238,0.238095238095238,-3.14159265358979,                95P    123
-3.14159265358979,-3.14159265358979,-1.5707963267949,                 95P    124
-1.5707963267949,0.,0.,1.5707963267949,1.5707963267949,               95P    125
3.14159265358979,3.14159265358979,3.14159265358979,1.,1.,             95P    126
0.707106781186548,0.707106781186548,1.,1.,0.707106781186548,          95P    127
0.707106781186548,1.,1.,0.707106781186548,0.707106781186548,1.,       95P    128
1.,0.707106781186548,0.707106781186548,1.,1.,26.7,                    95P    129
-2.77202650826325D-14,0.,26.7,-2.77202650826325D-14,2.,26.7,          95P    130
4.19999999999997,0.,26.7,4.19999999999997,2.,22.5,                    95P    131
4.19999999999997,0.,22.5,4.19999999999997,2.,18.3,                    95P    132
4.19999999999997,0.,18.3,4.19999999999997,2.,18.3,-3.086045D-14,      95P    133
0.,18.3,-3.086045D-14,2.,18.3,-4.20000000000003,0.,18.3,              95P    134
-4.20000000000003,2.,22.5,-4.20000000000003,0.,22.5,                  95P    135
-4.20000000000003,2.,26.7,-4.20000000000003,0.,26.7,                  95P    136
-4.20000000000003,2.,26.7,-2.77202650826325D-14,0.,26.7,              95P    137
-2.77202650826325D-14,2.,-0.238095238095238,0.238095238095238,        95P    138
-3.14159265358979,3.14159265358979;                                   95P    139
128,1,8,1,2,0,1,0,0,1,-0.238095238095238,-0.238095238095238,          97P    140
0.238095238095238,0.238095238095238,-3.14159265358979,                97P    141
-3.14159265358979,-3.14159265358979,-1.5707963267949,                 97P    142
-1.5707963267949,0.,0.,1.5707963267949,1.5707963267949,               97P    143
3.14159265358979,3.14159265358979,3.14159265358979,1.,1.,             97P    144
0.707106781186548,0.707106781186548,1.,1.,0.707106781186548,          97P    145
0.707106781186548,1.,1.,0.707106781186548,0.707106781186548,1.,       97P    146
1.,0.707106781186548,0.707106781186548,1.,1.,-18.3,                   97P    147
-3.40006349173676D-14,0.,-18.3,-3.40006349173676D-14,2.,-18.3,        97P    148
4.19999999999997,0.,-18.3,4.19999999999997,2.,-22.5,                  97P    149
4.19999999999997,0.,-22.5,4.19999999999997,2.,-26.7,                  97P    150
4.19999999999997,0.,-26.7,4.19999999999997,2.,-26.7,                  97P    151
-3.086045D-14,0.,-26.7,-3.086045D-14,2.,-26.7,-4.20000000000003,      97P    152
0.,-26.7,-4.20000000000003,2.,-22.5,-4.20000000000004,0.,-22.5,       97P    153
-4.20000000000004,2.,-18.3,-4.20000000000004,0.,-18.3,                97P    154
-4.20000000000004,2.,-18.3,-3.40006349173676D-14,0.,-18.3,            97P    155
-3.40006349173676D-14,2.,-0.238095238095238,0.238095238095238,        97P    156
-3.14159265358979,3.14159265358979;                                   97P    157
128,1,8,1,2,0,1,0,0,1,-0.1,-0.1,0.1,0.1,-3.14159265358979,            99P    158
-3.14159265358979,-3.14159265358979,-1.5707963267949,                 99P    159
-1.5707963267949,0.,0.,1.5707963267949,1.5707963267949,               99P    160
3.14159265358979,3.14159265358979,3.14159265358979,1.,1.,             99P    161
0.707106781186548,0.707106781186548,1.,1.,0.707106781186548,          99P    162
0.707106781186548,1.,1.,0.707106781186548,0.707106781186548,1.,       99P    163
1.,0.707106781186548,0.707106781186548,1.,1.,10.,                     99P    164
-2.68604626239487D-14,0.,10.,-2.68604626239487D-14,2.,10.,            99P    165
9.99999999999997,0.,10.,9.99999999999997,2.,                          99P    166
9.85731458285106D-15,9.99999999999997,0.,9.85731458285106D-15,        99P    167
9.99999999999997,2.,-9.99999999999999,9.99999999999997,0.,            99P    168
-9.99999999999999,9.99999999999997,2.,-9.99999999999999,              99P    169
-3.157074D-14,0.,-9.99999999999999,-3.157074D-14,2.,                  99P    170
-9.99999999999999,-10.,0.,-9.99999999999999,-10.,2.,                  99P    171
1.45675919589024D-14,-10.,0.,1.45675919589024D-14,-10.,2.,10.,        99P    172
-10.,0.,10.,-10.,2.,10.,-2.68604626239487D-14,0.,10.,                 99P    173
-2.68604626239487D-14,2.,-0.1,0.1,-3.14159265358979,                  99P    174
3.14159265358979;                                                     99P    175
128,1,1,1,1,0,0,1,0,0,-0.001,-0.001,2.001,2.001,-0.001,-0.001,       101P    176
45.001,45.001,1.,1.,1.,1.,-45.,-22.501,-0.001,-45.,-22.501,          101P    177
2.001,-45.,22.501,-0.001,-45.,22.501,2.001,-0.001,2.001,-0.001,      101P    178
45.001;                                                              101P    179
128,1,1,1,1,0,0,1,0,0,-0.001,-0.001,2.001,2.001,-0.001,-0.001,       103P    180
90.001,90.001,1.,1.,1.,1.,-45.001,22.5,-0.001,-45.001,22.5,          103P    181
2.001,45.001,22.5,-0.001,45.001,22.5,2.001,-0.001,2.001,-0.001,      103P    182
90.001;                                                              103P    183
128,1,1,1,1,0,0,1,0,0,-2.001,-2.001,0.00099999999999989,             105P    184
0.00099999999999989,-45.001,-45.001,0.001,0.001,1.,1.,1.,1.,45.,     105P    185
-22.501,2.001,45.,-22.501,-0.001,45.,22.501,2.001,45.,22.501,        105P    186
-0.00099999999999989,-2.001,0.00099999999999989,-45.001,0.001;       105P    187
128,1,1,1,1,0,0,1,0,0,-2.001,-2.001,0.00099999999999989,             107P    188
0.00099999999999989,-90.0009999999999,-90.0009999999999,0.001,       107P    189
0.001,1.,1.,1.,1.,-45.001,-22.5,2.001,-45.001,-22.5,-0.001,          107P    190
45.001,-22.5,2.001,45.001,-22.5,-0.00099999999999989,-2.001,         107P    191
0.00099999999999989,-90.0009999999999,0.001;                         107P    192
128,1,1,1,1,0,0,1,0,0,-45.001,-45.001,45.001,45.001,-22.501,         109P    193
-22.501,22.501,22.501,1.,1.,1.,1.,45.001,-22.501,0.,-45.001,         109P    194
-22.501,0.,45.001,22.501,0.,-45.001,22.501,0.,-45.001,45.001,        109P    195
-22.501,22.501;                                                      109P    196
128,1,1,1,1,0,0,1,0,0,-45.001,-45.001,45.001,45.001,-22.501,         111P    197
-22.501,22.501,22.501,1.,1.,1.,1.,-45.001,-22.501,2.,45.001,         111P    198
-22.501,2.,-45.001,22.501,2.,45.001,22.501,2.,-45.001,45.001,        111P    199
-22.501,22.501;                                                      111P    200
502,14,26.7,-3.03461D-14,0.,26.7,-3.03461D-14,2.,-18.3,              113P    201
-3.03461D-14,0.,-18.3,-3.03461D-14,2.,10.,-3.03461D-14,0.,10.,       113P    202
-3.03461D-14,2.,-45.,-22.5,2.,-45.,22.5,2.,-45.,22.5,0.,-45.,        113P    203
-22.5,0.,45.,22.5,2.,45.,22.5,0.,45.,-22.5,2.,45.,-22.5,0.;          113P    204
504,21,53,113,1,113,1,55,113,1,113,2,57,113,2,113,2,59,113,3,        115P    205
113,3,61,113,3,113,4,63,113,4,113,4,65,113,5,113,5,67,113,5,113,     115P    206
6,69,113,6,113,6,71,113,7,113,8,73,113,9,113,8,75,113,9,113,10,      115P    207
77,113,10,113,7,79,113,8,113,11,81,113,12,113,11,83,113,12,113,      115P    208
9,85,113,11,113,13,87,113,14,113,13,89,113,14,113,12,91,113,13,      115P    209
113,7,93,113,10,113,14;                                              115P    210
406,1,7HBryła1;                                                     117P    211
314,74.9019607843137,74.9019607843137,74.9019607843137,;             119P    212
314,30.9803921568627,30.9803921568627,30.9803921568627,;             121P    213
S      1G      3D    122P    213                                        T      1
