                                                                        S      1
,,,6H321300,22HAutodesk Inventor 2021,7Hunknown,32,38,7,99,15,,1.,2,2HMMG      1
,1,0.08,15H20221005.112240,0.01,10000.,13HMrówczyńska,,11,0,15H2021080G      2
6.000000;                                                               G      3
     186       1                                                00000000D      1
     186            -143       1       0                               0D      2
     514       2                                                00010000D      3
     514                       1       1                               0D      4
     510       3                                                00010000D      5
     510            -143       1       1                               0D      6
     510       4                                                00010000D      7
     510            -143       1       1                               0D      8
     510       5                                                00010000D      9
     510            -143       1       1                               0D     10
     510       6                                                00010000D     11
     510            -143       1       1                               0D     12
     510       7                                                00010000D     13
     510            -143       1       1                               0D     14
     510       8                                                00010000D     15
     510            -143       1       1                               0D     16
     510       9                                                00010000D     17
     510            -143       1       1                               0D     18
     510      10                                                00010000D     19
     510            -143       1       1                               0D     20
     510      11                                                00010000D     21
     510            -143       1       1                               0D     22
     510      12                                                00010000D     23
     510            -143       1       1                               0D     24
     510      13                                                00010000D     25
     510            -143       1       1                               0D     26
     510      14                                                00010000D     27
     510            -143       1       1                               0D     28
     508      15                                                00010000D     29
     508                       1       1                               0D     30
     508      16                                                00010000D     31
     508                       1       1                               0D     32
     508      17                                                00010000D     33
     508                       1       1                               0D     34
     508      18                                                00010000D     35
     508                       1       1                               0D     36
     508      19                                                00010000D     37
     508                       1       1                               0D     38
     508      20                                                00010000D     39
     508                       1       1                               0D     40
     508      21                                                00010000D     41
     508                       1       1                               0D     42
     508      22                                                00010000D     43
     508                       1       1                               0D     44
     508      23                                                00010000D     45
     508                       1       1                               0D     46
     508      24                                                00010000D     47
     508                       1       1                               0D     48
     508      25                                                00010000D     49
     508                       3       1                               0D     50
     508      28                                                00010000D     51
     508                       3       1                               0D     52
     126      31                                                00010000D     53
     126       0               4       0                               0D     54
     126      35                                                00010000D     55
     126       0               2       0                               0D     56
     126      37                                                00010000D     57
     126       0               4       0                               0D     58
     126      41                                                00010000D     59
     126       0               2       0                               0D     60
     126      43                                                00010000D     61
     126       0               2       0                               0D     62
     126      45                                                00010000D     63
     126       0               3       0                               0D     64
     126      48                                                00010000D     65
     126       0               2       0                               0D     66
     126      50                                                00010000D     67
     126       0               4       0                               0D     68
     126      54                                                00010000D     69
     126       0               2       0                               0D     70
     126      56                                                00010000D     71
     126       0               4       0                               0D     72
     126      60                                                00010000D     73
     126       0               3       0                               0D     74
     126      63                                                00010000D     75
     126       0               2       0                               0D     76
     126      65                                                00010000D     77
     126       0               3       0                               0D     78
     126      68                                                00010000D     79
     126       0               3       0                               0D     80
     126      71                                                00010000D     81
     126       0               2       0                               0D     82
     126      73                                                00010000D     83
     126       0               3       0                               0D     84
     126      76                                                00010000D     85
     126       0               3       0                               0D     86
     126      79                                                00010000D     87
     126       0               2       0                               0D     88
     126      81                                                00010000D     89
     126       0               3       0                               0D     90
     126      84                                                00010000D     91
     126       0               4       0                               0D     92
     126      88                                                00010000D     93
     126       0               2       0                               0D     94
     126      90                                                00010000D     95
     126       0               3       0                               0D     96
     126      93                                                00010000D     97
     126       0               2       0                               0D     98
     126      95                                                00010000D     99
     126       0               2       0                               0D    100
     126      97                                                00010000D    101
     126       0               2       0                               0D    102
     126      99                                                00010000D    103
     126       0               4       0                               0D    104
     126     103                                                00010000D    105
     126       0               3       0                               0D    106
     126     106                                                00010000D    107
     126       0               4       0                               0D    108
     126     110                                                00010000D    109
     126       0               3       0                               0D    110
     126     113                                                00010000D    111
     126       0               3       0                               0D    112
     128     116                                                00010000D    113
     128       0    -143       5       0                               0D    114
     128     121                                                00010000D    115
     128       0    -143       6       0                               0D    116
     128     127                                                00010000D    117
     128       0    -143       7       0                               0D    118
     128     134                                                00010000D    119
     128       0    -143       5       0                               0D    120
     128     139                                                00010000D    121
     128       0    -143       7       0                               0D    122
     128     146                                                00010000D    123
     128       0    -143       7       0                               0D    124
     128     153                                                00010000D    125
     128       0    -143       6       0                               0D    126
     128     159                                                00010000D    127
     128       0    -143       4       0                               0D    128
     128     163                                                00010000D    129
     128       0    -143       6       0                               0D    130
     128     169                                                00010000D    131
     128       0    -143       5       0                               0D    132
     128     174                                                00010000D    133
     128       0    -143       5       0                               0D    134
     128     179                                                00010000D    135
     128       0    -143       5       0                               0D    136
     502     184                                                00010000D    137
     502                       9       1                               0D    138
     504     193                                                00010001D    139
     504                       8       1                               0D    140
     406     201                                                00000000D    141
     406                       1      15                               0D    142
     314     202                                                00000200D    143
     314                       1       0                               0D    144
186,3,1,0,0,1,141;                                                     1P      1
514,12,5,1,7,1,9,1,11,1,13,1,15,1,17,1,19,1,21,1,23,1,25,1,27,1;       3P      2
510,113,1,1,29;                                                        5P      3
510,115,1,1,31;                                                        7P      4
510,117,1,1,33;                                                        9P      5
510,119,1,1,35;                                                       11P      6
510,121,1,1,37;                                                       13P      7
510,123,1,1,39;                                                       15P      8
510,125,1,1,41;                                                       17P      9
510,127,1,1,43;                                                       19P     10
510,129,1,1,45;                                                       21P     11
510,131,1,1,47;                                                       23P     12
510,133,1,1,49;                                                       25P     13
510,135,1,1,51;                                                       27P     14
508,4,0,139,1,1,0,0,139,2,0,0,0,139,3,0,0,0,139,4,1,0;                29P     15
508,4,0,139,5,1,0,0,139,6,0,0,0,139,7,0,0,0,139,2,1,0;                31P     16
508,4,0,139,8,1,0,0,139,9,0,0,0,139,10,0,0,0,139,6,1,0;               33P     17
508,4,0,139,11,1,0,0,139,12,0,0,0,139,13,0,0,0,139,9,1,0;             35P     18
508,4,0,139,14,1,0,0,139,15,0,0,0,139,16,0,0,0,139,12,1,0;            37P     19
508,4,0,139,17,1,0,0,139,18,0,0,0,139,19,0,0,0,139,15,1,0;            39P     20
508,4,0,139,20,1,0,0,139,21,0,0,0,139,22,0,0,0,139,18,1,0;            41P     21
508,4,0,139,23,1,0,0,139,24,0,0,0,139,25,0,0,0,139,21,1,0;            43P     22
508,4,0,139,26,1,0,0,139,27,0,0,0,139,28,0,0,0,139,24,1,0;            45P     23
508,4,0,139,29,1,0,0,139,4,0,0,0,139,30,0,0,0,139,27,1,0;             47P     24
508,10,0,139,17,0,0,0,139,14,0,0,0,139,11,0,0,0,139,8,0,0,0,139,      49P     25
5,0,0,0,139,1,0,0,0,139,29,0,0,0,139,26,0,0,0,139,23,0,0,0,139,       49P     26
20,0,0;                                                               49P     27
508,10,0,139,19,1,0,0,139,22,1,0,0,139,25,1,0,0,139,28,1,0,0,         51P     28
139,30,1,0,0,139,3,1,0,0,139,7,1,0,0,139,10,1,0,0,139,13,1,0,0,       51P     29
139,16,1,0;                                                           51P     30
126,1,1,0,0,1,0,-0.205000000000001,-0.205000000000001,                53P     31
0.615000000000003,0.615000000000003,1.,1.,-4.10000000000002,4.,       53P     32
100.,4.10000000000002,4.,100.,-0.205000000000001,                     53P     33
0.615000000000003,0.,0.,0.;                                           53P     34
126,1,1,0,0,1,0,0.,0.,10.,10.,1.,1.,4.10000000000002,4.,0.,           55P     35
4.10000000000002,4.,100.,0.,10.,0.,0.,0.;                             55P     36
126,1,1,0,0,1,0,-0.205000000000001,-0.205000000000001,                57P     37
0.615000000000003,0.615000000000003,1.,1.,-4.10000000000002,4.,       57P     38
0.,4.10000000000002,4.,0.,-0.205000000000001,0.615000000000003,       57P     39
0.,0.,0.;                                                             57P     40
126,1,1,0,0,1,0,0.,0.,10.,10.,1.,1.,-4.10000000000002,4.,0.,          59P     41
-4.10000000000002,4.,100.,0.,10.,0.,0.,0.;                            59P     42
126,1,1,0,0,1,0,-0.2,-0.2,0.18,0.18,1.,1.,4.10000000000002,4.,        61P     43
100.,4.10000000000002,0.200000000000004,100.,-0.2,0.18,0.,0.,0.;      61P     44
126,1,1,0,0,1,0,0.,0.,10.,10.,1.,1.,4.10000000000002,                 63P     45
0.200000000000004,0.,4.10000000000002,0.200000000000004,100.,0.,      63P     46
10.,0.,0.,0.;                                                         63P     47
126,1,1,0,0,1,0,-0.2,-0.2,0.18,0.18,1.,1.,4.10000000000002,4.,        65P     48
0.,4.10000000000002,0.200000000000004,0.,-0.2,0.18,0.,0.,0.;          65P     49
126,1,1,0,0,1,0,0.205000000000001,0.205000000000001,                  67P     50
0.484999999999999,0.484999999999999,1.,1.,4.10000000000002,           67P     51
0.200000000000004,100.,6.9,0.200000000000004,100.,                    67P     52
0.205000000000001,0.484999999999999,0.,0.,0.;                         67P     53
126,1,1,0,0,1,0,0.,0.,10.,10.,1.,1.,6.9,0.200000000000004,0.,         69P     54
6.9,0.200000000000004,100.,0.,10.,0.,0.,0.;                           69P     55
126,1,1,0,0,1,0,0.205000000000001,0.205000000000001,                  71P     56
0.484999999999999,0.484999999999999,1.,1.,4.10000000000002,           71P     57
0.200000000000004,0.,6.9,0.200000000000004,0.,0.205000000000001,      71P     58
0.484999999999999,0.,0.,0.;                                           71P     59
126,1,1,0,0,1,0,-0.0100000000000002,-0.0100000000000002,0.21,         73P     60
0.21,1.,1.,6.9,0.200000000000004,100.,6.9,-2.,100.,                   73P     61
-0.0100000000000002,0.21,0.,0.,0.;                                    73P     62
126,1,1,0,0,1,0,0.,0.,10.,10.,1.,1.,6.9,-2.,0.,6.9,-2.,100.,0.,       75P     63
10.,0.,0.,0.;                                                         75P     64
126,1,1,0,0,1,0,-0.0100000000000002,-0.0100000000000002,0.21,         77P     65
0.21,1.,1.,6.9,0.200000000000004,0.,6.9,-2.,0.,                       77P     66
-0.0100000000000002,0.21,0.,0.,0.;                                    77P     67
126,1,1,0,0,1,0,-0.173241161390704,-0.173241161390704,                79P     68
0.109601551083915,0.109601551083915,1.,1.,6.9,-2.,100.,4.9,-4.,       79P     69
100.,-0.173241161390704,0.109601551083915,0.,0.,0.;                   79P     70
126,1,1,0,0,1,0,0.,0.,10.,10.,1.,1.,4.9,-4.,0.,4.9,-4.,100.,0.,       81P     71
10.,0.,0.,0.;                                                         81P     72
126,1,1,0,0,1,0,-0.173241161390704,-0.173241161390704,                83P     73
0.109601551083915,0.109601551083915,1.,1.,6.9,-2.,0.,4.9,-4.,0.,      83P     74
-0.173241161390704,0.109601551083915,0.,0.,0.;                        83P     75
126,1,1,0,0,1,0,-0.245,-0.245,0.735000000000001,                      85P     76
0.735000000000001,1.,1.,4.9,-4.,100.,-4.90000000000001,-4.,100.,      85P     77
-0.245,0.735000000000001,0.,0.,0.;                                    85P     78
126,1,1,0,0,1,0,0.,0.,10.,10.,1.,1.,-4.90000000000001,-4.,0.,         87P     79
-4.90000000000001,-4.,100.,0.,10.,0.,0.,0.;                           87P     80
126,1,1,0,0,1,0,-0.245,-0.245,0.735000000000001,                      89P     81
0.735000000000001,1.,1.,4.9,-4.,0.,-4.90000000000001,-4.,0.,          89P     82
-0.245,0.735000000000001,0.,0.,0.;                                    89P     83
126,1,1,0,0,1,0,0.0318198051533949,0.0318198051533949,                91P     84
0.314662517628014,0.314662517628014,1.,1.,-4.90000000000001,-4.,      91P     85
100.,-6.9,-2.,100.,0.0318198051533949,0.314662517628014,0.,0.,        91P     86
0.;                                                                   91P     87
126,1,1,0,0,1,0,0.,0.,10.,10.,1.,1.,-6.9,-2.,0.,-6.9,-2.,100.,        93P     88
0.,10.,0.,0.,0.;                                                      93P     89
126,1,1,0,0,1,0,0.0318198051533949,0.0318198051533949,                95P     90
0.314662517628014,0.314662517628014,1.,1.,-4.90000000000001,-4.,      95P     91
0.,-6.9,-2.,0.,0.0318198051533949,0.314662517628014,0.,0.,0.;         95P     92
126,1,1,0,0,1,0,-0.1,-0.1,0.12,0.12,1.,1.,-6.9,-2.,100.,-6.9,         97P     93
0.200000000000004,100.,-0.1,0.12,0.,0.,0.;                            97P     94
126,1,1,0,0,1,0,0.,0.,10.,10.,1.,1.,-6.9,0.200000000000004,0.,        99P     95
-6.9,0.200000000000004,100.,0.,10.,0.,0.,0.;                          99P     96
126,1,1,0,0,1,0,-0.1,-0.1,0.12,0.12,1.,1.,-6.9,-2.,0.,-6.9,          101P     97
0.200000000000004,0.,-0.1,0.12,0.,0.,0.;                             101P     98
126,1,1,0,0,1,0,-0.345,-0.345,-0.0650000000000021,                   103P     99
-0.0650000000000021,1.,1.,-6.9,0.200000000000004,100.,               103P    100
-4.10000000000002,0.200000000000004,100.,-0.345,                     103P    101
-0.0650000000000021,0.,0.,0.;                                        103P    102
126,1,1,0,0,1,0,0.,0.,10.,10.,1.,1.,-4.10000000000002,               105P    103
0.200000000000004,0.,-4.10000000000002,0.200000000000004,100.,       105P    104
0.,10.,0.,0.,0.;                                                     105P    105
126,1,1,0,0,1,0,-0.345,-0.345,-0.0650000000000021,                   107P    106
-0.0650000000000021,1.,1.,-6.9,0.200000000000004,0.,                 107P    107
-4.10000000000002,0.200000000000004,0.,-0.345,                       107P    108
-0.0650000000000021,0.,0.,0.;                                        107P    109
126,1,1,0,0,1,0,0.0100000000000002,0.0100000000000002,0.39,0.39,     109P    110
1.,1.,-4.10000000000002,0.200000000000004,100.,                      109P    111
-4.10000000000002,4.,100.,0.0100000000000002,0.39,0.,0.,0.;          109P    112
126,1,1,0,0,1,0,0.0100000000000002,0.0100000000000002,0.39,0.39,     111P    113
1.,1.,-4.10000000000002,0.200000000000004,0.,-4.10000000000002,      111P    114
4.,0.,0.0100000000000002,0.39,0.,0.,0.;                              111P    115
128,1,1,1,1,0,0,1,0,0,-0.001,-0.001,10.001,10.001,-0.001,-0.001,     113P    116
0.821000000000005,0.821000000000005,1.,1.,1.,1.,                     113P    117
-4.11000000000002,4.,-0.01,-4.11000000000002,4.,100.01,              113P    118
4.11000000000002,4.,-0.01,4.11000000000002,4.,100.01,-0.001,         113P    119
10.001,-0.001,0.821000000000005;                                     113P    120
128,1,1,1,1,0,0,1,0,0,-10.001,-10.001,0.000999999999999446,          115P    121
0.000999999999999446,-0.381,-0.381,0.001,0.001,1.,1.,1.,1.,          115P    122
4.10000000000002,0.190000000000003,100.01,4.10000000000002,          115P    123
0.190000000000003,-0.01,4.10000000000002,4.01,100.01,                115P    124
4.10000000000002,4.01,-0.00999999999999446,-10.001,                  115P    125
0.000999999999999446,-0.381,0.001;                                   115P    126
128,1,1,1,1,0,0,1,0,0,-0.001,-0.001,10.001,10.001,                   117P    127
-0.00100000000000006,-0.00100000000000006,0.280999999999998,         117P    128
0.280999999999998,1.,1.,1.,1.,4.09000000000002,                      117P    129
0.200000000000004,-0.01,4.09000000000002,0.200000000000004,          117P    130
100.01,6.91000000000001,0.200000000000004,-0.01,                     117P    131
6.91000000000001,0.200000000000004,100.01,-0.001,10.001,             117P    132
-0.00100000000000006,0.280999999999998;                              117P    133
128,1,1,1,1,0,0,1,0,0,-10.001,-10.001,0.000999999999999446,          119P    134
0.000999999999999446,-0.221,-0.221,0.001,0.001,1.,1.,1.,1.,6.9,      119P    135
-2.01,100.01,6.9,-2.01,-0.01,6.9,0.210000000000004,100.01,6.9,       119P    136
0.210000000000004,-0.00999999999999446,-10.001,                      119P    137
0.000999999999999446,-0.221,0.001;                                   119P    138
128,1,1,1,1,0,0,1,0,0,-10.001,-10.001,0.000999999999999446,          121P    139
0.000999999999999446,-0.283842712474619,-0.283842712474619,          121P    140
0.001,0.001,1.,1.,1.,1.,4.89292893218814,-4.00707106781187,          121P    141
100.01,4.89292893218814,-4.00707106781187,-0.01,                     121P    142
6.90707106781187,-1.99292893218814,100.01,6.90707106781187,          121P    143
-1.99292893218813,-0.00999999999999446,-10.001,                      121P    144
0.000999999999999446,-0.283842712474619,0.001;                       121P    145
128,1,1,1,1,0,0,1,0,0,-10.001,-10.001,0.000999999999999446,          123P    146
0.000999999999999446,-0.981000000000001,-0.981000000000001,          123P    147
0.00100000000000006,0.00100000000000006,1.,1.,1.,1.,                 123P    148
-4.91000000000001,-4.,100.01,-4.91000000000001,-4.,-0.01,            123P    149
4.91000000000001,-4.,100.01,4.91000000000001,-4.,                    123P    150
-0.00999999999999446,-10.001,0.000999999999999446,                   123P    151
-0.981000000000001,0.00100000000000006;                              123P    152
128,1,1,1,1,0,0,1,0,0,-0.001,-0.001,10.001,10.001,-0.001,-0.001,     125P    153
0.283842712474619,0.283842712474619,1.,1.,1.,1.,                     125P    154
-4.89292893218814,-4.00707106781186,-0.01,-4.89292893218814,         125P    155
-4.00707106781186,100.01,-6.90707106781187,-1.99292893218813,        125P    156
-0.01,-6.90707106781187,-1.99292893218813,100.01,-0.001,10.001,      125P    157
-0.001,0.283842712474619;                                            125P    158
128,1,1,1,1,0,0,1,0,0,-0.001,-0.001,10.001,10.001,-0.001,-0.001,     127P    159
0.221,0.221,1.,1.,1.,1.,-6.9,-2.01,-0.01,-6.9,-2.01,100.01,-6.9,     127P    160
0.210000000000004,-0.01,-6.9,0.210000000000004,100.01,-0.001,        127P    161
10.001,-0.001,0.221;                                                 127P    162
128,1,1,1,1,0,0,1,0,0,-0.001,-0.001,10.001,10.001,-0.001,-0.001,     129P    163
0.280999999999998,0.280999999999998,1.,1.,1.,1.,                     129P    164
-6.91000000000001,0.200000000000004,-0.01,-6.91000000000001,         129P    165
0.200000000000004,100.01,-4.09000000000002,0.200000000000004,        129P    166
-0.01,-4.09000000000002,0.200000000000004,100.01,-0.001,10.001,      129P    167
-0.001,0.280999999999998;                                            129P    168
128,1,1,1,1,0,0,1,0,0,-0.001,-0.001,10.001,10.001,-0.001,-0.001,     131P    169
0.381,0.381,1.,1.,1.,1.,-4.10000000000002,0.190000000000003,         131P    170
-0.01,-4.10000000000002,0.190000000000003,100.01,                    131P    171
-4.10000000000002,4.01,-0.01,-4.10000000000002,4.01,100.01,          131P    172
-0.001,10.001,-0.001,0.381;                                          131P    173
128,1,1,1,1,0,0,1,0,0,-0.691000000000001,-0.691000000000001,         133P    174
0.691000000000001,0.691000000000001,-0.401,-0.401,0.401,0.401,       133P    175
1.,1.,1.,1.,-6.91000000000001,-4.01,100.,6.91000000000001,-4.01,     133P    176
100.,-6.91000000000001,4.01,100.,6.91000000000001,4.01,100.,         133P    177
-0.691000000000001,0.691000000000001,-0.401,0.401;                   133P    178
128,1,1,1,1,0,0,1,0,0,-0.691000000000001,-0.691000000000001,         135P    179
0.691000000000001,0.691000000000001,-0.401,-0.401,0.401,0.401,       135P    180
1.,1.,1.,1.,6.91000000000001,-4.01,0.,-6.91000000000001,-4.01,       135P    181
0.,6.91000000000001,4.01,0.,-6.91000000000001,4.01,0.,               135P    182
-0.691000000000001,0.691000000000001,-0.401,0.401;                   135P    183
502,20,-4.10000000000002,4.,100.,4.10000000000002,4.,100.,           137P    184
4.10000000000002,4.,0.,-4.10000000000002,4.,0.,4.10000000000002,     137P    185
0.200000000000004,100.,4.10000000000002,0.200000000000004,0.,        137P    186
6.9,0.200000000000004,100.,6.9,0.200000000000004,0.,6.9,-2.,         137P    187
100.,6.9,-2.,0.,4.9,-4.,100.,4.9,-4.,0.,-4.90000000000001,-4.,       137P    188
100.,-4.90000000000001,-4.,0.,-6.9,-2.,100.,-6.9,-2.,0.,-6.9,        137P    189
0.200000000000004,100.,-6.9,0.200000000000004,0.,                    137P    190
-4.10000000000002,0.200000000000004,100.,-4.10000000000002,          137P    191
0.200000000000004,0.;                                                137P    192
504,30,53,137,1,137,2,55,137,3,137,2,57,137,4,137,3,59,137,4,        139P    193
137,1,61,137,2,137,5,63,137,6,137,5,65,137,3,137,6,67,137,5,137,     139P    194
7,69,137,8,137,7,71,137,6,137,8,73,137,7,137,9,75,137,10,137,9,      139P    195
77,137,8,137,10,79,137,9,137,11,81,137,12,137,11,83,137,10,137,      139P    196
12,85,137,11,137,13,87,137,14,137,13,89,137,12,137,14,91,137,13,     139P    197
137,15,93,137,16,137,15,95,137,14,137,16,97,137,15,137,17,99,        139P    198
137,18,137,17,101,137,16,137,18,103,137,17,137,19,105,137,20,        139P    199
137,19,107,137,18,137,20,109,137,19,137,1,111,137,20,137,4;          139P    200
406,1,8HTěleso1;                                                    141P    201
314,50.1960784313725,50.1960784313725,50.1960784313725,;             143P    202
S      1G      3D    144P    202                                        T      1
