                                                                        S      1
,,,6H220011,22HAutodesk Inventor 2021,7Hunknown,32,38,7,99,15,,1.,2,2HMMG      1
,1,0.08,15H20221003.072309,0.01,10000.,13HMrówczyńska,,11,0,15H2010090G      2
5.121908;                                                               G      3
     186       1                                                00000000D      1
     186             -89       1       0                               0D      2
     514       2                                                00010000D      3
     514                       1       1                               0D      4
     510       3                                                00010000D      5
     510             -89       1       1                               0D      6
     510       4                                                00010000D      7
     510             -89       1       1                               0D      8
     510       5                                                00010000D      9
     510             -89       1       1                               0D     10
     510       6                                                00010000D     11
     510             -89       1       1                               0D     12
     510       7                                                00010000D     13
     510             -89       1       1                               0D     14
     510       8                                                00010000D     15
     510             -89       1       1                               0D     16
     510       9                                                00010000D     17
     510             -89       1       1                               0D     18
     508      10                                                00010000D     19
     508                       2       1                               0D     20
     508      12                                                00010000D     21
     508                       1       1                               0D     22
     508      13                                                00010000D     23
     508                       1       1                               0D     24
     508      14                                                00010000D     25
     508                       2       1                               0D     26
     508      16                                                00010000D     27
     508                       1       1                               0D     28
     508      17                                                00010000D     29
     508                       1       1                               0D     30
     508      18                                                00010000D     31
     508                       1       1                               0D     32
     508      19                                                00010000D     33
     508                       1       1                               0D     34
     508      20                                                00010000D     35
     508                       2       1                               0D     36
     126      22                                                00010000D     37
     126       0               5       0                               0D     38
     126      27                                                00010000D     39
     126       0               3       0                               0D     40
     126      30                                                00010000D     41
     126       0               5       0                               0D     42
     126      35                                                00010000D     43
     126       0               8       0                               0D     44
     126      43                                                00010000D     45
     126       0               4       0                               0D     46
     126      47                                                00010000D     47
     126       0               5       0                               0D     48
     126      52                                                00010000D     49
     126       0               5       0                               0D     50
     126      57                                                00010000D     51
     126       0               7       0                               0D     52
     126      64                                                00010000D     53
     126       0               6       0                               0D     54
     126      70                                                00010000D     55
     126       0               8       0                               0D     56
     126      78                                                00010000D     57
     126       0               4       0                               0D     58
     126      82                                                00010000D     59
     126       0              10       0                               0D     60
     126      92                                                00010000D     61
     126       0               6       0                               0D     62
     126      98                                                00010000D     63
     126       0               8       0                               0D     64
     126     106                                                00010000D     65
     126       0               4       0                               0D     66
     128     110                                                00010000D     67
     128       0     -89      17       0                               0D     68
     128     127                                                00010000D     69
     128       0     -89       4       0                               0D     70
     128     131                                                00010000D     71
     128       0     -89      17       0                               0D     72
     128     148                                                00010000D     73
     128       0     -89       5       0                               0D     74
     128     153                                                00010000D     75
     128       0     -89      17       0                               0D     76
     128     170                                                00010000D     77
     128       0     -89       4       0                               0D     78
     128     174                                                00010000D     79
     128       0     -89      16       0                               0D     80
     502     190                                                00010000D     81
     502                       4       1                               0D     82
     504     194                                                00010001D     83
     504                       4       1                               0D     84
     406     198                                                00000000D     85
     406                       1      15                               0D     86
     314     199                                                00000200D     87
     314                       1       0                               0D     88
     314     200                                                00000200D     89
     314                       1       0                               0D     90
186,3,1,0,0,1,85;                                                      1P      1
514,7,5,1,7,1,9,1,11,1,13,1,15,1,17,1;                                 3P      2
510,67,1,1,19;                                                         5P      3
510,69,2,1,21,23;                                                      7P      4
510,71,1,1,25;                                                         9P      5
510,73,2,1,27,29;                                                     11P      6
510,75,1,1,31;                                                        13P      7
510,77,1,1,33;                                                        15P      8
510,79,1,1,35;                                                        17P      9
508,7,0,83,1,1,0,0,83,2,1,0,0,83,3,1,0,0,83,4,1,0,0,83,2,0,0,0,       19P     10
83,5,1,0,0,83,6,1,0;                                                  19P     11
508,2,0,83,4,0,0,0,83,3,0,0;                                          21P     12
508,2,0,83,7,1,0,0,83,8,1,0;                                          23P     13
508,7,0,83,9,0,0,0,83,10,0,0,0,83,11,1,0,0,83,5,0,0,0,83,1,0,0,       25P     14
0,83,6,0,0,0,83,11,0,0;                                               25P     15
508,1,0,83,12,0,0;                                                    27P     16
508,2,0,83,9,1,0,0,83,10,1,0;                                         29P     17
508,1,0,83,12,1,0;                                                    31P     18
508,2,0,83,13,0,0,0,83,14,0,0;                                        33P     19
508,6,0,83,7,0,0,0,83,8,0,0,0,83,15,1,0,0,83,14,1,0,0,83,13,1,0,      35P     20
0,83,15,0,0;                                                          35P     21
126,2,2,0,0,0,0,-3.14159265358979,-3.14159265358979,                  37P     22
-3.14159265358979,-1.5707963267949,-1.5707963267949,                  37P     23
-1.5707963267949,1.,0.707106781186548,1.,-5.5,-3.6,                   37P     24
-6.73555739531044D-16,-5.5,-3.6,-5.5,3.36777869765522D-16,-3.6,       37P     25
-5.5,-3.14159265358979,-1.5707963267949,0.,0.,0.;                     37P     26
126,2,2,0,0,0,0,0.,0.,0.,1.5707963267949,1.5707963267949,             39P     27
1.5707963267949,1.,0.707106781186548,1.,0.,-3.6,-5.5,0.,-4.,          39P     28
-5.5,0.,-4.,-5.1,0.,1.5707963267949,0.,0.,0.;                         39P     29
126,2,2,0,0,0,0,1.5707963267949,1.5707963267949,1.5707963267949,      41P     30
3.14159265358979,3.14159265358979,3.14159265358979,1.,                41P     31
0.707106781186548,1.,3.12284933782575D-16,-4.,-5.1,-5.1,-4.,          41P     32
-5.1,-5.1,-4.,-6.2456986756515D-16,1.5707963267949,                   41P     33
3.14159265358979,0.,0.,0.;                                            41P     34
126,6,2,0,0,0,0,-3.14159265358979,-3.14159265358979,                  43P     35
-3.14159265358979,-1.5707963267949,-1.5707963267949,0.,0.,            43P     36
1.5707963267949,1.5707963267949,1.5707963267949,1.,                   43P     37
0.707106781186548,1.,0.707106781186548,1.,0.707106781186548,1.,       43P     38
-5.1,-4.,6.2456986756515D-16,-5.1,-4.,5.1,3.12284933782575D-16,       43P     39
-4.,5.1,5.1,-4.,5.1,5.1,-4.,0.,5.1,-4.,-5.1,                          43P     40
3.12284933782575D-16,-4.,-5.1,-3.14159265358979,1.5707963267949,      43P     41
0.,0.,0.;                                                             43P     42
126,2,2,0,0,0,0,-1.5707963267949,-1.5707963267949,                    45P     43
-1.5707963267949,0.,0.,0.,1.,0.707106781186548,1.,                    45P     44
3.36777869765522D-16,-3.6,-5.5,5.5,-3.6,-5.5,5.5,-3.6,0.,             45P     45
-1.5707963267949,0.,0.,0.,0.;                                         45P     46
126,4,2,0,0,0,0,0.,0.,0.,1.5707963267949,1.5707963267949,             47P     47
3.14159265358979,3.14159265358979,3.14159265358979,1.,                47P     48
0.707106781186548,1.,0.707106781186548,1.,5.5,-3.6,0.,5.5,-3.6,       47P     49
5.5,3.36777869765522D-16,-3.6,5.5,-5.5,-3.6,5.5,-5.5,-3.6,            47P     50
6.73555739531044D-16,0.,3.14159265358979,0.,0.,0.;                    47P     51
126,4,2,0,0,0,0,0.,0.,0.,1.5707963267949,1.5707963267949,             49P     52
3.14159265358979,3.14159265358979,3.14159265358979,1.,                49P     53
0.707106781186548,1.,0.707106781186548,1.,-4.6,-4.,0.,-4.6,-4.,       49P     54
4.6,-2.81668763803891D-16,-4.,4.6,4.6,-4.,4.6,4.6,-4.,                49P     55
5.63337527607783D-16,0.,3.14159265358979,0.,0.,0.;                    49P     56
126,4,2,0,0,0,0,3.14159265358979,3.14159265358979,                    51P     57
3.14159265358979,4.71238898038469,4.71238898038469,                   51P     58
6.28318530717959,6.28318530717959,6.28318530717959,1.,                51P     59
0.707106781186548,1.,0.707106781186548,1.,4.6,-4.,                    51P     60
5.63337527607783D-16,4.6,-4.,-4.6,8.45006291411674D-16,-4.,-4.6,      51P     61
-4.6,-4.,-4.6,-4.6,-4.,-1.12667505521557D-15,3.14159265358979,        51P     62
6.28318530717959,0.,0.,0.;                                            51P     63
126,4,2,0,0,0,0,0.,0.,0.,1.5707963267949,1.5707963267949,             53P     64
3.14159265358979,3.14159265358979,3.14159265358979,1.,                53P     65
0.707106781186548,1.,0.707106781186548,1.,-5.5,-1.110223D-15,0.,      53P     66
-5.5,-1.110223D-15,5.5,-3.36777869765522D-16,-1.110223D-15,5.5,       53P     67
5.5,-1.110223D-15,5.5,5.5,-1.110223D-15,6.73555739531044D-16,0.,      53P     68
3.14159265358979,0.,0.,0.;                                            53P     69
126,4,2,0,0,0,0,3.14159265358979,3.14159265358979,                    55P     70
3.14159265358979,4.71238898038469,4.71238898038469,                   55P     71
6.28318530717959,6.28318530717959,6.28318530717959,1.,                55P     72
0.707106781186548,1.,0.707106781186547,1.,5.5,-1.110223D-15,          55P     73
6.73555739531044D-16,5.5,-1.110223D-15,-5.5,                          55P     74
1.01033360929657D-15,-1.110223D-15,-5.5,-5.5,-1.110223D-15,-5.5,      55P     75
-5.5,-1.110223D-15,-1.34711147906209D-15,3.14159265358979,            55P     76
6.28318530717959,0.,0.,0.;                                            55P     77
126,1,1,0,0,1,0,-0.363636363636364,-0.363636363636364,                57P     78
0.290909090909091,0.290909090909091,1.,1.,5.5,                        57P     79
-1.11022302462516D-15,0.,5.5,-3.6,0.,-0.363636363636364,              57P     80
0.290909090909091,0.,0.,0.;                                           57P     81
126,8,2,0,1,0,0,0.,0.,0.,1.5707963267949,1.5707963267949,             59P     82
3.14159265358979,3.14159265358979,4.71238898038469,                   59P     83
4.71238898038469,6.28318530717959,6.28318530717959,                   59P     84
6.28318530717959,1.,0.707106781186548,1.,0.707106781186548,1.,        59P     85
0.707106781186548,1.,0.707106781186548,1.,-6.9,-1.665335D-15,0.,      59P     86
-6.9,-1.665335D-15,6.9,-4.22503145705837D-16,-1.665335D-15,6.9,       59P     87
6.9,-1.665335D-15,6.9,6.9,-1.665335D-15,8.45006291411674D-16,         59P     88
6.9,-1.665335D-15,-6.9,1.26750943711751D-15,-1.665335D-15,-6.9,       59P     89
-6.9,-1.665335D-15,-6.9,-6.9,-1.665335D-15,                           59P     90
-1.69001258282335D-15,0.,6.28318530717959,0.,0.,0.;                   59P     91
126,4,2,0,0,0,0,0.,0.,0.,1.5707963267949,1.5707963267949,             61P     92
3.14159265358979,3.14159265358979,3.14159265358979,1.,                61P     93
0.707106781186548,1.,0.707106781186548,1.,-4.6,-1.110223D-15,0.,      61P     94
-4.6,-1.110223D-15,4.6,-2.81668763803891D-16,-1.110223D-15,4.6,       61P     95
4.6,-1.110223D-15,4.6,4.6,-1.110223D-15,5.63337527607783D-16,0.,      61P     96
3.14159265358979,0.,0.,0.;                                            61P     97
126,4,2,0,0,0,0,3.14159265358979,3.14159265358979,                    63P     98
3.14159265358979,4.71238898038469,4.71238898038469,                   63P     99
6.28318530717959,6.28318530717959,6.28318530717959,1.,                63P    100
0.707106781186548,1.,0.707106781186548,1.,4.6,-1.110223D-15,          63P    101
5.63337527607783D-16,4.6,-1.110223D-15,-4.6,                          63P    102
8.45006291411674D-16,-1.110223D-15,-4.6,-4.6,-1.110223D-15,-4.6,      63P    103
-4.6,-1.110223D-15,-1.12667505521557D-15,3.14159265358979,            63P    104
6.28318530717959,0.,0.,0.;                                            63P    105
126,1,1,0,0,1,0,-0.434782608695652,-0.434782608695652,                65P    106
0.434782608695652,0.434782608695652,1.,1.,4.6,-4.,0.,4.6,             65P    107
-1.11022302462516D-15,0.,-0.434782608695652,0.434782608695652,        65P    108
0.,0.,0.;                                                             65P    109
128,2,8,2,2,0,1,0,0,1,-1.5707963267949,-1.5707963267949,              67P    110
-1.5707963267949,0.,0.,0.,-3.14159265358979,-3.14159265358979,        67P    111
-3.14159265358979,-1.5707963267949,-1.5707963267949,0.,0.,            67P    112
1.5707963267949,1.5707963267949,3.14159265358979,                     67P    113
3.14159265358979,3.14159265358979,1.,0.707106781186548,1.,            67P    114
0.707106781186548,0.500000000000001,0.707106781186548,1.,             67P    115
0.707106781186548,1.,0.707106781186548,0.500000000000001,             67P    116
0.707106781186548,1.,0.707106781186548,1.,0.707106781186548,          67P    117
0.500000000000001,0.707106781186548,1.,0.707106781186548,1.,          67P    118
0.707106781186548,0.500000000000001,0.707106781186548,1.,             67P    119
0.707106781186548,1.,0.,-3.6,-5.5,0.,-4.,-5.5,0.,-4.,-5.1,-5.5,       67P    120
-3.6,-5.5,-5.5,-4.,-5.5,-5.1,-4.,-5.1,-5.5,-3.6,0.,-5.5,-4.,0.,       67P    121
-5.1,-4.,0.,-5.5,-3.6,5.5,-5.5,-4.,5.5,-5.1,-4.,5.1,0.,-3.6,5.5,      67P    122
0.,-4.,5.5,0.,-4.,5.1,5.5,-3.6,5.5,5.5,-4.,5.5,5.1,-4.,5.1,5.5,       67P    123
-3.6,0.,5.5,-4.,0.,5.1,-4.,0.,5.5,-3.6,-5.5,5.5,-4.,-5.5,5.1,         67P    124
-4.,-5.1,0.,-3.6,-5.5,0.,-4.,-5.5,0.,-4.,-5.1,-1.5707963267949,       67P    125
0.,-3.14159265358979,3.14159265358979;                                67P    126
128,1,1,1,1,0,0,1,0,0,-5.101,-5.101,5.101,5.101,                      69P    127
-0.0510000000000012,-0.0510000000000012,10.151,10.151,1.,1.,1.,       69P    128
1.,-5.101,-4.,5.101,-5.101,-4.,-5.101,5.101,-4.,5.101,5.101,-4.,      69P    129
-5.101,-5.101,5.101,-0.0510000000000012,10.151;                       69P    130
128,1,8,1,2,0,1,0,0,1,-0.290909090909091,-0.290909090909091,          71P    131
0.363636363636364,0.363636363636364,-3.14159265358979,                71P    132
-3.14159265358979,-3.14159265358979,-1.5707963267949,                 71P    133
-1.5707963267949,0.,0.,1.5707963267949,1.5707963267949,               71P    134
3.14159265358979,3.14159265358979,3.14159265358979,1.,1.,             71P    135
0.707106781186548,0.707106781186548,1.,1.,0.707106781186548,          71P    136
0.707106781186548,1.,1.,0.707106781186548,0.707106781186548,1.,       71P    137
1.,0.707106781186548,0.707106781186548,1.,1.,5.5,                     71P    138
-1.11022302462516D-15,0.,5.5,-3.6,0.,5.5,-1.11022302462516D-15,       71P    139
-5.5,5.5,-3.6,-5.5,0.,-1.11022302462516D-15,-5.5,0.,-3.6,-5.5,        71P    140
-5.5,-1.11022302462516D-15,-5.5,-5.5,-3.6,-5.5,-5.5,                  71P    141
-1.11022302462516D-15,0.,-5.5,-3.6,0.,-5.5,                           71P    142
-1.11022302462516D-15,5.5,-5.5,-3.6,5.5,0.,                           71P    143
-1.11022302462516D-15,5.5,0.,-3.6,5.5,5.5,-1.11022302462516D-15,      71P    144
5.5,5.5,-3.6,5.5,5.5,-1.11022302462516D-15,0.,5.5,-3.6,0.,            71P    145
-0.290909090909091,0.363636363636364,-3.14159265358979,               71P    146
3.14159265358979;                                                     71P    147
128,1,1,1,1,0,0,1,0,0,-6.901,-6.901,6.901,6.901,                      73P    148
-0.700999999999999,-0.700999999999999,13.101,13.101,1.,1.,1.,1.,      73P    149
-6.901,-1.387779D-15,6.901,-6.901,-1.387779D-15,-6.901,6.901,         73P    150
-1.387779D-15,6.901,6.901,-1.387779D-15,-6.901,-6.901,6.901,          73P    151
-0.700999999999999,13.101;                                            73P    152
128,2,2,2,2,0,0,0,0,0,-0.29153330230345,-0.29153330230345,            75P    153
-0.29153330230345,0.289741493776104,0.289741493776104,                75P    154
0.289741493776104,1.28030963669409,1.28030963669409,                  75P    155
1.28030963669409,1.85864722557133,1.85864722557133,                   75P    156
1.85864722557133,1.,0.958061415481419,1.,0.95848122953851,            75P    157
0.918283883484035,0.95848122953851,1.,0.958061415481419,1.,           75P    158
6.67123623070443,-0.988910958656586,6.94404795871758,                 75P    159
7.2661315557964,1.00108558560156,-0.0227281360712095,                 75P    160
6.66766178782893,-1.0008679007771,-6.98577143796886,                  75P    161
0.0320259819465029,0.995833763983742,6.94404795871758,                75P    162
0.0348818404834507,3.16281629946873,-0.0227281360712095,              75P    163
0.0320088224517645,0.982813397276208,-6.98577143796886,               75P    164
-6.61239257107735,-0.971404511745271,6.94404795871758,                75P    165
-7.20204062013039,1.02015313799113,-0.0227281360712095,               75P    166
-6.60884965658619,-0.983370833805619,-6.98577143796886,               75P    167
-0.29153330230345,0.289741493776104,1.28030963669409,                 75P    168
1.85864722557133;                                                     75P    169
128,1,1,1,1,0,0,1,0,0,-4.601,-4.601,4.601,4.601,-2.301,-2.301,        77P    170
6.901,6.901,1.,1.,1.,1.,-4.601,-8.326673D-16,4.601,-4.601,            77P    171
-8.326673D-16,-4.601,4.601,-8.326673D-16,4.601,4.601,                 77P    172
-8.326673D-16,-4.601,-4.601,4.601,-2.301,6.901;                       77P    173
128,1,8,1,2,0,1,0,0,1,-0.434782608695652,-0.434782608695652,          79P    174
0.434782608695652,0.434782608695652,-3.14159265358979,                79P    175
-3.14159265358979,-3.14159265358979,-1.5707963267949,                 79P    176
-1.5707963267949,0.,0.,1.5707963267949,1.5707963267949,               79P    177
3.14159265358979,3.14159265358979,3.14159265358979,1.,1.,             79P    178
0.707106781186548,0.707106781186548,1.,1.,0.707106781186548,          79P    179
0.707106781186548,1.,1.,0.707106781186548,0.707106781186548,1.,       79P    180
1.,0.707106781186548,0.707106781186548,1.,1.,4.6,-4.,0.,4.6,          79P    181
-1.11022302462516D-15,0.,4.6,-4.,-4.6,4.6,-1.11022302462516D-15,      79P    182
-4.6,0.,-4.,-4.6,0.,-1.11022302462516D-15,-4.6,-4.6,-4.,-4.6,         79P    183
-4.6,-1.11022302462516D-15,-4.6,-4.6,-4.,0.,-4.6,                     79P    184
-1.11022302462516D-15,0.,-4.6,-4.,4.6,-4.6,                           79P    185
-1.11022302462516D-15,4.6,0.,-4.,4.6,0.,-1.11022302462516D-15,        79P    186
4.6,4.6,-4.,4.6,4.6,-1.11022302462516D-15,4.6,4.6,-4.,0.,4.6,         79P    187
-1.11022302462516D-15,0.,-0.434782608695652,0.434782608695652,        79P    188
-3.14159265358979,3.14159265358979;                                   79P    189
502,12,-5.5,-3.6,-1.347067D-15,0.,-3.6,-5.5,0.,-4.,-5.1,-5.1,         81P    190
-4.,0.,5.5,-3.6,0.,-4.6,-4.,0.,4.6,-4.,0.,-5.5,-1.110223D-15,0.,      81P    191
5.5,-1.11022302462516D-15,0.,-6.9,-1.665335D-15,0.,-4.6,              81P    192
-1.110223D-15,0.,4.6,-1.11022302462516D-15,0.;                        81P    193
504,15,37,81,1,81,2,39,81,2,81,3,41,81,3,81,4,43,81,4,81,3,45,        83P    194
81,2,81,5,47,81,5,81,1,49,81,6,81,7,51,81,7,81,6,53,81,8,81,9,        83P    195
55,81,9,81,8,57,81,9,81,5,59,81,10,81,10,61,81,11,81,12,63,81,        83P    196
12,81,11,65,81,7,81,12;                                               83P    197
406,1,7HBryła1;                                                      85P    198
314,74.9019607843137,74.9019607843137,74.9019607843137,;              87P    199
314,0.,0.,0.,;                                                        89P    200
S      1G      3D     90P    200                                        T      1
