                                                                        S      1
,,,12H220007.s.stp,22HAutodesk Inventor 2021,7Hunknown,32,38,7,99,15,,  G      1
1.,2,2HMM,1,0.08,15H20220729.065238,0.01,10000.,11Haluteckk_jm,,11,0,15HG      2
20140103.000000;                                                        G      3
     186       1                                                00000000D      1
     186             -87       1       0                               0D      2
     514       2                                                00010000D      3
     514                       1       1                               0D      4
     510       3                                                00010000D      5
     510             -87       1       1                               0D      6
     510       4                                                00010000D      7
     510             -87       1       1                               0D      8
     510       5                                                00010000D      9
     510             -87       1       1                               0D     10
     510       6                                                00010000D     11
     510             -87       1       1                               0D     12
     510       7                                                00010000D     13
     510             -87       1       1                               0D     14
     510       8                                                00010000D     15
     510             -87       1       1                               0D     16
     510       9                                                00010000D     17
     510             -87       1       1                               0D     18
     508      10                                                00010000D     19
     508                       1       1                               0D     20
     508      11                                                00010000D     21
     508                       1       1                               0D     22
     508      12                                                00010000D     23
     508                       1       1                               0D     24
     508      13                                                00010000D     25
     508                       2       1                               0D     26
     508      15                                                00010000D     27
     508                       1       1                               0D     28
     508      16                                                00010000D     29
     508                       1       1                               0D     30
     508      17                                                00010000D     31
     508                       1       1                               0D     32
     508      18                                                00010000D     33
     508                       1       1                               0D     34
     508      19                                                00010000D     35
     508                       2       1                               0D     36
     126      21                                                00010000D     37
     126       0               7       0                               0D     38
     126      28                                                00010000D     39
     126       0               6       0                               0D     40
     126      34                                                00010000D     41
     126       0               4       0                               0D     42
     126      38                                                00010000D     43
     126       0              12       0                               0D     44
     126      50                                                00010000D     45
     126       0               7       0                               0D     46
     126      57                                                00010000D     47
     126       0               8       0                               0D     48
     126      65                                                00010000D     49
     126       0               8       0                               0D     50
     126      73                                                00010000D     51
     126       0              10       0                               0D     52
     126      83                                                00010000D     53
     126       0               4       0                               0D     54
     126      87                                                00010000D     55
     126       0              10       0                               0D     56
     126      97                                                00010000D     57
     126       0               6       0                               0D     58
     126     103                                                00010000D     59
     126       0               7       0                               0D     60
     126     110                                                00010000D     61
     126       0               8       0                               0D     62
     126     118                                                00010000D     63
     126       0              10       0                               0D     64
     126     128                                                00010000D     65
     126       0               4       0                               0D     66
     128     132                                                00010000D     67
     128       0     -87      20       0                               0D     68
     128     152                                                00010000D     69
     128       0     -87       7       0                               0D     70
     128     159                                                00010000D     71
     128       0     -87      23       0                               0D     72
     128     182                                                00010000D     73
     128       0     -87       6       0                               0D     74
     128     188                                                00010000D     75
     128       0     -87      35       0                               0D     76
     128     223                                                00010000D     77
     128       0     -87       8       0                               0D     78
     128     231                                                00010000D     79
     128       0     -87      22       0                               0D     80
     502     253                                                00010000D     81
     502                       8       1                               0D     82
     504     261                                                00010001D     83
     504                       4       1                               0D     84
     406     265                                                00000000D     85
     406                       1      15                               0D     86
     314     266                                                00000200D     87
     314                       1       0                               0D     88
186,3,1,0,0,1,85;                                                      1P      1
514,7,5,1,7,1,9,1,11,1,13,1,15,1,17,1;                                 3P      2
510,67,1,1,19;                                                         5P      3
510,69,2,1,21,23;                                                      7P      4
510,71,1,1,25;                                                         9P      5
510,73,2,1,27,29;                                                     11P      6
510,75,1,1,31;                                                        13P      7
510,77,1,1,33;                                                        15P      8
510,79,1,1,35;                                                        17P      9
508,5,0,83,1,1,0,0,83,2,1,0,0,83,3,1,0,0,83,4,1,0,0,83,3,0,0;         19P     10
508,1,0,83,4,0,0;                                                     21P     11
508,2,0,83,5,1,0,0,83,6,1,0;                                          23P     12
508,6,0,83,7,0,0,0,83,8,0,0,0,83,9,1,0,0,83,1,0,0,0,83,2,0,0,0,       25P     13
83,9,0,0;                                                             25P     14
508,2,0,83,10,0,0,0,83,11,0,0;                                        27P     15
508,2,0,83,7,1,0,0,83,8,1,0;                                          29P     16
508,4,0,83,12,1,0,0,83,11,1,0,0,83,10,1,0,0,83,12,0,0;                31P     17
508,2,0,83,13,0,0,0,83,14,0,0;                                        33P     18
508,6,0,83,13,1,0,0,83,15,1,0,0,83,5,0,0,0,83,6,0,0,0,83,15,0,0,      35P     19
0,83,14,1,0;                                                          35P     20
126,4,2,0,0,0,0,-3.14159265358979,-3.14159265358979,                  37P     21
-3.14159265358979,-1.5707963267949,-1.5707963267949,0.,0.,0.,1.,      37P     22
0.707106781186548,1.,0.707106781186548,1.,-3.7,-4.8,                  37P     23
-4.53119315684521D-16,-3.7,-4.8,-3.70000000000001,                    37P     24
1.92658866429953D-15,-4.8,-3.70000000000001,3.70000000000001,         37P     25
-4.8,-3.70000000000001,3.70000000000001,-4.8,0.,                      37P     26
-3.14159265358979,0.,0.,0.,0.;                                        37P     27
126,4,2,0,0,0,0,0.,0.,0.,1.5707963267949,1.5707963267949,             39P     28
3.14159265358979,3.14159265358979,3.14159265358979,1.,                39P     29
0.707106781186548,1.,0.707106781186548,1.,3.70000000000001,-4.8,      39P     30
0.,3.70000000000001,-4.8,3.70000000000001,1.92658866429953D-15,       39P     31
-4.8,3.70000000000001,-3.7,-4.8,3.70000000000001,-3.7,-4.8,           39P     32
4.53119315684521D-16,0.,3.14159265358979,0.,0.,0.;                    39P     33
126,1,1,0,0,1,0,-0.318995286974555,-0.318995286974555,                41P     34
0.318995286974555,0.318995286974555,1.,1.,-3.7,-4.8,0.,               41P     35
-2.9720595314676,-6.8,0.,-0.318995286974555,0.318995286974555,        41P     36
0.,0.,0.;                                                             41P     37
126,8,2,0,1,0,0,-3.14159265358979,-3.14159265358979,                  43P     38
-3.14159265358979,-1.5707963267949,-1.5707963267949,0.,0.,            43P     39
1.5707963267949,1.5707963267949,3.14159265358979,                     43P     40
3.14159265358979,3.14159265358979,1.,0.707106781186548,1.,            43P     41
0.707106781186548,1.,0.707106781186548,1.,0.707106781186548,1.,       43P     42
-2.9720595314676,-6.8,3.63972319208718D-16,-2.9720595314676,          43P     43
-6.8,2.9720595314676,2.63372867231825D-15,-6.8,2.9720595314676,       43P     44
2.9720595314676,-6.8,2.9720595314676,2.9720595314676,-6.8,0.,         43P     45
2.9720595314676,-6.8,-2.9720595314676,2.63372867231825D-15,-6.8,      43P     46
-2.9720595314676,-2.9720595314676,-6.8,-2.9720595314676,              43P     47
-2.9720595314676,-6.8,-3.63972319208718D-16,-3.14159265358979,        43P     48
3.14159265358979,0.,0.,0.;                                            43P     49
126,4,2,0,0,0,0,0.,0.,0.,1.5707963267949,1.5707963267949,             45P     50
3.14159265358979,3.14159265358979,3.14159265358979,1.,                45P     51
0.707106781186548,1.,0.707106781186548,1.,-2.9,-6.8,0.,-2.9,          45P     52
-6.8,2.90000000000001,2.27416872683752D-15,-6.8,                      45P     53
2.90000000000001,2.90000000000001,-6.8,2.90000000000001,              45P     54
2.90000000000001,-6.8,3.55147571752733D-16,0.,3.14159265358979,       45P     55
0.,0.,0.;                                                             45P     56
126,4,2,0,0,0,0,3.14159265358979,3.14159265358979,                    47P     57
3.14159265358979,4.71238898038469,4.71238898038469,                   47P     58
6.28318530717959,6.28318530717959,6.28318530717959,1.,                47P     59
0.707106781186548,1.,0.707106781186547,1.,2.90000000000001,-6.8,      47P     60
3.55147571752733D-16,2.90000000000001,-6.8,-2.90000000000001,         47P     61
2.98446387034299D-15,-6.8,-2.90000000000001,-2.9,-6.8,                47P     62
-2.90000000000001,-2.9,-6.8,-7.10295143505466D-16,                    47P     63
3.14159265358979,6.28318530717959,0.,0.,0.;                           47P     64
126,4,2,0,0,0,0,0.,0.,0.,1.5707963267949,1.5707963267949,             49P     65
3.14159265358979,3.14159265358979,3.14159265358979,1.,                49P     66
0.707106781186547,1.,0.707106781186548,1.,-3.70000000000001,          49P     67
1.11022302462516D-15,0.,-3.70000000000001,1.11022302462516D-15,       49P     68
3.70000000000001,-3.30643066400869D-16,2.22044604925031D-15,          49P     69
3.70000000000001,3.7,3.33066907387547D-15,3.70000000000001,           49P     70
3.70000000000001,3.33066907387547D-15,4.53119315684521D-16,0.,        49P     71
3.14159265358979,0.,0.,0.;                                            49P     72
126,4,2,0,0,0,0,3.14159265358979,3.14159265358979,                    51P     73
3.14159265358979,4.71238898038469,4.71238898038469,                   51P     74
6.28318530717959,6.28318530717959,6.28318530717959,1.,                51P     75
0.707106781186548,1.,0.707106781186547,1.,3.70000000000001,           51P     76
3.33066907387547D-15,4.53119315684521D-16,3.70000000000001,           51P     77
3.33066907387547D-15,-3.7,5.75595564968173D-16,                       51P     78
2.22044604925031D-15,-3.70000000000001,-3.7,                          51P     79
1.11022302462516D-15,-3.70000000000001,-3.70000000000001,             51P     80
1.11022302462516D-15,-9.06238631369043D-16,3.14159265358979,          51P     81
6.28318530717959,0.,0.,0.;                                            51P     82
126,1,1,0,0,1,0,-0.918918918918917,-0.918918918918917,                53P     83
0.378378378378378,0.378378378378378,1.,1.,3.70000000000001,           53P     84
4.9960036108132D-15,0.,3.70000000000001,-4.8,0.,                      53P     85
-0.918918918918917,0.378378378378378,0.,0.,0.;                        53P     86
126,6,2,0,0,0,0,0.,0.,0.,1.5707963267949,1.5707963267949,             55P     87
3.14159265358979,3.14159265358979,4.71238898038469,                   55P     88
4.71238898038469,4.71238898038469,1.,0.707106781186548,1.,            55P     89
0.707106781186547,1.,0.707106781186548,1.,-4.8,                       55P     90
1.89037974463203D-15,0.,-4.8,1.89037974463203D-15,4.8,                55P     91
-3.97998640353974D-16,3.33066907387547D-15,4.8,4.8,                   55P     92
4.77095840311891D-15,4.8,4.8,4.77095840311891D-15,                    55P     93
5.8783046359073D-16,4.8,4.77095840311891D-15,-4.8,                    55P     94
7.77662286827486D-16,3.33066907387547D-15,-4.8,0.,                    55P     95
4.71238898038469,0.,0.,0.;                                            55P     96
126,2,2,0,0,0,0,4.71238898038469,4.71238898038469,                    57P     97
4.71238898038469,6.28318530717959,6.28318530717959,                   57P     98
6.28318530717959,1.,0.707106781186547,1.,7.77662286827486D-16,        57P     99
3.33066907387547D-15,-4.8,-4.8,1.89037974463203D-15,-4.8,-4.8,        57P    100
1.89037974463203D-15,-1.17566092718146D-15,4.71238898038469,          57P    101
6.28318530717959,0.,0.,0.;                                            57P    102
126,2,2,0,0,0,0,-1.57579947659957,-1.57579947659957,                  59P    103
-1.57579947659957,-1.07583585073649,-1.07583585073649,                59P    104
-1.07583585073649,1.,0.968916921103147,1.,-5.57955676897449D-16,      59P    105
1.2,-8.76035355368288D-16,-5.62756914770888D-16,                      59P    106
1.21277411629159,-2.55319352907289,-1.06927573143479D-16,             59P    107
3.33066907387547D-15,-4.8,-1.57579947659957,-1.07583585073649,        59P    108
0.,0.,0.;                                                             59P    109
126,4,2,0,0,0,0,0.,0.,0.,1.5707963267949,1.5707963267949,             61P    110
3.14159265358979,3.14159265358979,3.14159265358979,1.,                61P    111
0.707106781186548,1.,0.707106781186548,1.,-2.90000000000001,          61P    112
2.40048221540574D-16,0.,-2.90000000000001,2.40048221540574D-16,       61P    113
2.90000000000001,-2.81657194434975D-16,1.11022302462516D-15,          61P    114
2.90000000000001,2.90000000000001,1.98039782770974D-15,               61P    115
2.90000000000001,2.90000000000001,1.98039782770974D-15,               61P    116
3.55147571752733D-16,0.,3.14159265358979,0.,0.,0.;                    61P    117
126,4,2,0,0,0,0,3.14159265358979,3.14159265358979,                    63P    118
3.14159265358979,4.71238898038469,4.71238898038469,                   63P    119
6.28318530717959,6.28318530717959,6.28318530717959,1.,                63P    120
0.707106781186548,1.,0.707106781186547,1.,2.90000000000001,           63P    121
1.98039782770974D-15,3.55147571752733D-16,2.90000000000001,           63P    122
1.98039782770974D-15,-2.90000000000001,4.28637949070492D-16,          63P    123
1.11022302462516D-15,-2.90000000000001,-2.90000000000001,             63P    124
2.40048221540574D-16,-2.90000000000001,-2.90000000000001,             63P    125
2.40048221540574D-16,-7.10295143505467D-16,3.14159265358979,          63P    126
6.28318530717959,0.,0.,0.;                                            63P    127
126,1,1,0,0,1,0,-1.17241379310345,-1.17241379310345,                  65P    128
1.17241379310345,1.17241379310345,1.,1.,2.90000000000001,             65P    129
2.22044604925031D-15,0.,2.90000000000001,-6.8,0.,                     65P    130
-1.17241379310345,1.17241379310345,0.,0.,0.;                          65P    131
128,1,8,1,2,0,1,0,0,1,-0.318995286974555,-0.318995286974555,          67P    132
0.318995286974555,0.318995286974555,-3.14159265358979,                67P    133
-3.14159265358979,-3.14159265358979,-1.5707963267949,                 67P    134
-1.5707963267949,0.,0.,1.5707963267949,1.5707963267949,               67P    135
3.14159265358979,3.14159265358979,3.14159265358979,1.,1.,             67P    136
0.707106781186548,0.707106781186548,1.,1.,0.707106781186548,          67P    137
0.707106781186548,1.,1.,0.707106781186548,0.707106781186548,1.,       67P    138
1.,0.707106781186548,0.707106781186548,1.,1.,-3.7,-4.8,0.,            67P    139
-2.9720595314676,-6.8,0.,-3.7,-4.8,3.70000000000001,                  67P    140
-2.9720595314676,-6.8,2.9720595314676,1.70002900645727D-15,-4.8,      67P    141
3.70000000000001,2.45174251271389D-15,-6.8,2.9720595314676,           67P    142
3.70000000000001,-4.79999999999999,3.70000000000001,                  67P    143
2.9720595314676,-6.8,2.9720595314676,3.70000000000001,                67P    144
-4.79999999999999,0.,2.9720595314676,-6.8,0.,3.70000000000001,        67P    145
-4.79999999999999,-3.70000000000001,2.9720595314676,-6.8,             67P    146
-2.9720595314676,1.70002900645727D-15,-4.8,-3.70000000000001,         67P    147
2.45174251271389D-15,-6.8,-2.9720595314676,-3.7,-4.8,                 67P    148
-3.70000000000001,-2.9720595314676,-6.8,-2.9720595314676,-3.7,        67P    149
-4.8,0.,-2.9720595314676,-6.8,0.,-0.318995286974555,                  67P    150
0.318995286974555,-3.14159265358979,3.14159265358979;                 67P    151
128,1,1,1,1,0,0,1,0,0,-0.29820595314676,-0.29820595314676,            69P    152
0.29820595314676,0.29820595314676,0.0317940468532404,                 69P    153
0.0317940468532404,0.628205953146761,0.628205953146761,1.,1.,1.,      69P    154
1.,-2.9820595314676,-6.8,2.9820595314676,-2.9820595314676,-6.8,       69P    155
-2.9820595314676,2.9820595314676,-6.8,2.9820595314676,                69P    156
2.9820595314676,-6.8,-2.9820595314676,-0.29820595314676,              69P    157
0.29820595314676,0.0317940468532404,0.628205953146761;                69P    158
128,1,8,1,2,0,1,0,0,1,-0.378378378378378,-0.378378378378378,          71P    159
0.918918918918917,0.918918918918917,-3.14159265358979,                71P    160
-3.14159265358979,-3.14159265358979,-1.5707963267949,                 71P    161
-1.5707963267949,0.,0.,1.5707963267949,1.5707963267949,               71P    162
3.14159265358979,3.14159265358979,3.14159265358979,1.,1.,             71P    163
0.707106781186548,0.707106781186548,1.,1.,0.707106781186548,          71P    164
0.707106781186548,1.,1.,0.707106781186548,0.707106781186548,1.,       71P    165
1.,0.707106781186548,0.707106781186548,1.,1.,3.70000000000001,        71P    166
4.9960036108132D-15,0.,3.70000000000001,-4.8,0.,                      71P    167
3.70000000000001,4.9960036108132D-15,-3.70000000000001,               71P    168
3.70000000000001,-4.8,-3.70000000000001,-1.04083408558609D-16,        71P    169
3.33066907387547D-15,-3.70000000000001,1.70002900645727D-15,          71P    170
-4.8,-3.70000000000001,-3.70000000000001,1.66533453693774D-15,        71P    171
-3.70000000000001,-3.7,-4.8,-3.70000000000001,-3.70000000000001,      71P    172
1.66533453693773D-15,0.,-3.7,-4.8,0.,-3.70000000000001,               71P    173
1.66533453693774D-15,3.70000000000001,-3.7,-4.8,                      71P    174
3.70000000000001,-1.04083408558609D-16,3.33066907387547D-15,          71P    175
3.70000000000001,1.70002900645727D-15,-4.8,3.70000000000001,          71P    176
3.70000000000001,4.9960036108132D-15,3.70000000000001,                71P    177
3.70000000000001,-4.8,3.70000000000001,3.70000000000001,              71P    178
4.9960036108132D-15,0.,3.70000000000001,-4.8,0.,                      71P    179
-0.378378378378378,0.918918918918917,-3.14159265358979,               71P    180
3.14159265358979;                                                     71P    181
128,1,1,1,1,0,0,1,0,0,-0.481,-0.481,0.481,0.481,                      73P    182
-0.0559999999999999,-0.0559999999999999,0.906000000000001,            73P    183
0.906000000000001,1.,1.,1.,1.,-4.81,8.99743242873304D-16,4.81,        73P    184
-4.81,8.99743242873304D-16,-4.81,4.81,4.51548520796763D-15,4.81,      73P    185
4.81,4.51548520796763D-15,-4.81,-0.481,0.481,                         73P    186
-0.0559999999999999,0.906000000000001;                                73P    187
128,2,8,2,2,0,1,0,0,1,1.07583585073649,1.07583585073649,              75P    188
1.07583585073649,1.57579947659957,1.57579947659957,                   75P    189
1.57579947659957,-3.14159265358979,-3.14159265358979,                 75P    190
-3.14159265358979,-1.5707963267949,-1.5707963267949,0.,0.,            75P    191
1.5707963267949,1.5707963267949,3.14159265358979,                     75P    192
3.14159265358979,3.14159265358979,1.,0.968916921103147,1.,            75P    193
0.707106781186548,0.685127725318426,0.707106781186548,1.,             75P    194
0.968916921103147,1.,0.707106781186548,0.685127725318426,             75P    195
0.707106781186548,1.,0.968916921103147,1.,0.707106781186548,          75P    196
0.685127725318426,0.707106781186548,1.,0.968916921103147,1.,          75P    197
0.707106781186548,0.685127725318426,0.707106781186548,1.,             75P    198
0.968916921103147,1.,-5.57955676897449D-16,1.2,                       75P    199
-8.76035355368288D-16,-5.62756914770888D-16,1.21277411629159,         75P    200
-2.55319352907289,-1.06927573143479D-16,3.33066907387547D-15,         75P    201
-4.8,-1.43399103226574D-15,1.2,-8.76035355368287D-16,                 75P    202
-2.55319352907289,1.21277411629159,-2.55319352907289,-4.8,            75P    203
1.52655665885959D-15,-4.8,-1.43399103226574D-15,1.2,0.,               75P    204
-2.55319352907289,1.21277411629159,2.08642410641951D-31,-4.8,         75P    205
1.52655665885959D-15,0.,-1.43399103226574D-15,1.2,                    75P    206
8.76035355368287D-16,-2.55319352907289,1.21277411629159,              75P    207
2.55319352907289,-4.8,1.52655665885959D-15,4.8,                       75P    208
-5.57955676897449D-16,1.2,8.76035355368288D-16,                       75P    209
-5.62756914770888D-16,1.21277411629159,2.55319352907289,              75P    210
-1.06927573143479D-16,3.33066907387547D-15,4.8,                       75P    211
3.18079678470839D-16,1.2,8.76035355368287D-16,2.55319352907289,       75P    212
1.21277411629159,2.55319352907289,4.8,5.13478148889135D-15,4.8,       75P    213
3.18079678470839D-16,1.2,0.,2.55319352907289,1.21277411629159,        75P    214
-2.08642410641951D-31,4.8,5.13478148889135D-15,0.,                    75P    215
3.18079678470839D-16,1.2,-8.76035355368287D-16,2.55319352907289,      75P    216
1.21277411629159,-2.55319352907289,4.8,5.13478148889135D-15,          75P    217
-4.8,-5.57955676897449D-16,1.2,-8.76035355368288D-16,                 75P    218
-5.62756914770888D-16,1.21277411629159,-2.55319352907289,             75P    219
-1.06927573143479D-16,3.33066907387547D-15,-4.8,                      75P    220
1.07583585073649,1.57579947659957,-3.14159265358979,                  75P    221
3.14159265358979;                                                     75P    222
128,1,1,1,1,0,0,1,0,0,-0.291000000000001,-0.291000000000001,          77P    223
0.291000000000001,0.291000000000001,-0.146,-0.146,                    77P    224
0.436000000000001,0.436000000000001,1.,1.,1.,1.,                      77P    225
-2.91000000000001,5.61472165057825D-16,2.91000000000001,              77P    226
-2.91000000000001,5.61472165057825D-16,-2.91000000000001,             77P    227
2.91000000000001,2.74895846826459D-15,2.91000000000001,               77P    228
2.91000000000001,2.74895846826459D-15,-2.91000000000001,              77P    229
-0.291000000000001,0.291000000000001,-0.146,0.436000000000001;        77P    230
128,1,8,1,2,0,1,0,0,1,-1.17241379310345,-1.17241379310345,            79P    231
1.17241379310345,1.17241379310345,-3.14159265358979,                  79P    232
-3.14159265358979,-3.14159265358979,-1.5707963267949,                 79P    233
-1.5707963267949,0.,0.,1.5707963267949,1.5707963267949,               79P    234
3.14159265358979,3.14159265358979,3.14159265358979,1.,1.,             79P    235
0.707106781186548,0.707106781186548,1.,1.,0.707106781186548,          79P    236
0.707106781186548,1.,1.,0.707106781186548,0.707106781186548,1.,       79P    237
1.,0.707106781186548,0.707106781186548,1.,1.,2.90000000000001,        79P    238
-6.8,0.,2.90000000000001,2.22044604925031D-15,0.,                     79P    239
2.90000000000001,-6.8,-2.90000000000001,2.90000000000001,             79P    240
2.22044604925031D-15,-2.90000000000001,2.45174251271389D-15,          79P    241
-6.8,-2.90000000000001,-1.04083408558608D-16,                         79P    242
1.11022302462516D-15,-2.90000000000001,-2.9,-6.8,                     79P    243
-2.90000000000001,-2.90000000000001,2.46519032881566D-31,             79P    244
-2.90000000000001,-2.9,-6.8,0.,-2.90000000000001,0.,0.,-2.9,          79P    245
-6.8,2.90000000000001,-2.90000000000001,2.46519032881566D-31,         79P    246
2.90000000000001,2.45174251271389D-15,-6.8,2.90000000000001,          79P    247
-1.04083408558608D-16,1.11022302462516D-15,2.90000000000001,          79P    248
2.90000000000001,-6.8,2.90000000000001,2.90000000000001,              79P    249
2.22044604925031D-15,2.90000000000001,2.90000000000001,-6.8,0.,       79P    250
2.90000000000001,2.22044604925031D-15,0.,-1.17241379310345,           79P    251
1.17241379310345,-3.14159265358979,3.14159265358979;                  79P    252
502,12,-3.7,-4.8,-4.53119315684521D-16,3.70000000000001,-4.8,0.,      81P    253
-2.9720595314676,-6.8,3.63972319208718D-16,-2.9,-6.8,0.,              81P    254
2.90000000000001,-6.8,0.,-3.70000000000001,1.11022302462516D-15,      81P    255
0.,3.70000000000001,4.9960036108132D-15,0.,-4.8,                      81P    256
1.11022302462516D-15,0.,-1.06927573143479D-16,                        81P    257
3.33066907387547D-15,-4.8,-5.55111512312578D-16,1.2,0.,               81P    258
-2.90000000000001,0.,0.,2.90000000000001,2.22044604925031D-15,        81P    259
0.;                                                                   81P    260
504,15,37,81,1,81,2,39,81,2,81,1,41,81,1,81,3,43,81,3,81,3,45,        83P    261
81,4,81,5,47,81,5,81,4,49,81,6,81,7,51,81,7,81,6,53,81,7,81,2,        83P    262
55,81,8,81,9,57,81,9,81,8,59,81,10,81,9,61,81,11,81,12,63,81,12,      83P    263
81,11,65,81,12,81,5;                                                  83P    264
406,1,8HTěleso1;                                                     85P    265
314,60.,60.,60.,;                                                     87P    266
S      1G      3D     88P    266                                        T      1
