                                                                        S      1
,,,6H220007,22HAutodesk Inventor 2021,7Hunknown,32,38,7,99,15,,1.,2,2HMMG      1
,1,0.08,15H20221005.104354,0.01,10000.,13HMrówczyńska,,11,0,15H2010090G      2
5.122537;                                                               G      3
     186       1                                                00000000D      1
     186             -89       1       0                               0D      2
     514       2                                                00010000D      3
     514                       1       1                               0D      4
     510       3                                                00010000D      5
     510             -89       1       1                               0D      6
     510       4                                                00010000D      7
     510             -89       1       1                               0D      8
     510       5                                                00010000D      9
     510             -89       1       1                               0D     10
     510       6                                                00010000D     11
     510             -89       1       1                               0D     12
     510       7                                                00010000D     13
     510             -89       1       1                               0D     14
     510       8                                                00010000D     15
     510             -89       1       1                               0D     16
     510       9                                                00010000D     17
     510             -89       1       1                               0D     18
     508      10                                                00010000D     19
     508                       1       1                               0D     20
     508      11                                                00010000D     21
     508                       1       1                               0D     22
     508      12                                                00010000D     23
     508                       1       1                               0D     24
     508      13                                                00010000D     25
     508                       2       1                               0D     26
     508      15                                                00010000D     27
     508                       1       1                               0D     28
     508      16                                                00010000D     29
     508                       1       1                               0D     30
     508      17                                                00010000D     31
     508                       1       1                               0D     32
     508      18                                                00010000D     33
     508                       1       1                               0D     34
     508      19                                                00010000D     35
     508                       2       1                               0D     36
     126      21                                                00010000D     37
     126       0               7       0                               0D     38
     126      28                                                00010000D     39
     126       0               6       0                               0D     40
     126      34                                                00010000D     41
     126       0               4       0                               0D     42
     126      38                                                00010000D     43
     126       0              12       0                               0D     44
     126      50                                                00010000D     45
     126       0               7       0                               0D     46
     126      57                                                00010000D     47
     126       0               8       0                               0D     48
     126      65                                                00010000D     49
     126       0               7       0                               0D     50
     126      72                                                00010000D     51
     126       0               9       0                               0D     52
     126      81                                                00010000D     53
     126       0               4       0                               0D     54
     126      85                                                00010000D     55
     126       0               4       0                               0D     56
     126      89                                                00010000D     57
     126       0              11       0                               0D     58
     126     100                                                00010000D     59
     126       0               7       0                               0D     60
     126     107                                                00010000D     61
     126       0               7       0                               0D     62
     126     114                                                00010000D     63
     126       0              10       0                               0D     64
     126     124                                                00010000D     65
     126       0               4       0                               0D     66
     128     128                                                00010000D     67
     128       0     -89      20       0                               0D     68
     128     148                                                00010000D     69
     128       0     -89       7       0                               0D     70
     128     155                                                00010000D     71
     128       0     -89      23       0                               0D     72
     128     178                                                00010000D     73
     128       0     -89       6       0                               0D     74
     128     184                                                00010000D     75
     128       0     -89      40       0                               0D     76
     128     224                                                00010000D     77
     128       0     -89       8       0                               0D     78
     128     232                                                00010000D     79
     128       0     -89      22       0                               0D     80
     502     254                                                00010000D     81
     502                       8       1                               0D     82
     504     262                                                00010001D     83
     504                       4       1                               0D     84
     406     266                                                00000000D     85
     406                       1      15                               0D     86
     314     267                                                00000200D     87
     314                       1       0                               0D     88
     314     268                                                00000200D     89
     314                       1       0                               0D     90
186,3,1,0,0,1,85;                                                      1P      1
514,7,5,1,7,1,9,1,11,1,13,1,15,1,17,1;                                 3P      2
510,67,1,1,19;                                                         5P      3
510,69,2,1,21,23;                                                      7P      4
510,71,1,1,25;                                                         9P      5
510,73,2,1,27,29;                                                     11P      6
510,75,1,1,31;                                                        13P      7
510,77,1,1,33;                                                        15P      8
510,79,1,1,35;                                                        17P      9
508,5,0,83,1,1,0,0,83,2,1,0,0,83,3,1,0,0,83,4,1,0,0,83,3,0,0;         19P     10
508,1,0,83,4,0,0;                                                     21P     11
508,2,0,83,5,1,0,0,83,6,1,0;                                          23P     12
508,6,0,83,7,0,0,0,83,8,0,0,0,83,9,1,0,0,83,1,0,0,0,83,2,0,0,0,       25P     13
83,9,0,0;                                                             25P     14
508,2,0,83,10,0,0,0,83,11,0,0;                                        27P     15
508,2,0,83,7,1,0,0,83,8,1,0;                                          29P     16
508,4,0,83,10,1,0,0,83,12,1,0,0,83,12,0,0,0,83,11,1,0;                31P     17
508,2,0,83,13,0,0,0,83,14,0,0;                                        33P     18
508,6,0,83,5,0,0,0,83,6,0,0,0,83,15,1,0,0,83,14,1,0,0,83,13,1,0,      35P     19
0,83,15,0,0;                                                          35P     20
126,4,2,0,0,0,0,-3.14159265358979,-3.14159265358979,                  37P     21
-3.14159265358979,-1.5707963267949,-1.5707963267949,0.,0.,0.,1.,      37P     22
0.707106781186548,1.,0.707106781186548,1.,-3.7,-4.8,                  37P     23
-4.53119315684521D-16,-3.7,-4.8,-3.70000000000001,                    37P     24
1.92658865784226D-15,-4.8,-3.70000000000001,3.70000000000001,         37P     25
-4.8,-3.70000000000001,3.70000000000001,-4.8,0.,                      37P     26
-3.14159265358979,0.,0.,0.,0.;                                        37P     27
126,4,2,0,0,0,0,0.,0.,0.,1.5707963267949,1.5707963267949,             39P     28
3.14159265358979,3.14159265358979,3.14159265358979,1.,                39P     29
0.707106781186548,1.,0.707106781186548,1.,3.70000000000001,-4.8,      39P     30
0.,3.70000000000001,-4.8,3.70000000000001,1.92658865784226D-15,       39P     31
-4.8,3.70000000000001,-3.7,-4.8,3.70000000000001,-3.7,-4.8,           39P     32
4.53119315684521D-16,0.,3.14159265358979,0.,0.,0.;                    39P     33
126,1,1,0,0,1,0,-0.318995286974555,-0.318995286974555,                41P     34
0.318995286974555,0.318995286974555,1.,1.,-3.70000000000001,          41P     35
-4.8,0.,-2.9720595314676,-6.8,0.,-0.318995286974555,                  41P     36
0.318995286974555,0.,0.,0.;                                           41P     37
126,8,2,0,1,0,0,-3.14159265358979,-3.14159265358979,                  43P     38
-3.14159265358979,-1.5707963267949,-1.5707963267949,0.,0.,            43P     39
1.5707963267949,1.5707963267949,3.14159265358979,                     43P     40
3.14159265358979,3.14159265358979,1.,0.707106781186548,1.,            43P     41
0.707106781186548,1.,0.707106781186548,1.,0.707106781186548,1.,       43P     42
-2.9720595314676,-6.8,3.63972319208718D-16,-2.9720595314676,          43P     43
-6.8,2.9720595314676,2.63372915960436D-15,-6.8,2.9720595314676,       43P     44
2.9720595314676,-6.8,2.9720595314676,2.9720595314676,-6.8,0.,         43P     45
2.9720595314676,-6.8,-2.9720595314676,2.63372915960436D-15,-6.8,      43P     46
-2.9720595314676,-2.9720595314676,-6.8,-2.9720595314676,              43P     47
-2.9720595314676,-6.8,-3.63972319208718D-16,-3.14159265358979,        43P     48
3.14159265358979,0.,0.,0.;                                            43P     49
126,4,2,0,0,0,0,0.,0.,0.,1.5707963267949,1.5707963267949,             45P     50
3.14159265358979,3.14159265358979,3.14159265358979,1.,                45P     51
0.707106781186547,1.,0.707106781186548,1.,-2.9,-6.8,0.,-2.9,          45P     52
-6.8,2.90000000000001,2.27416921412363D-15,-6.8,                      45P     53
2.90000000000001,2.90000000000001,-6.8,2.90000000000001,              45P     54
2.90000000000001,-6.8,3.55147571752733D-16,0.,3.14159265358979,       45P     55
0.,0.,0.;                                                             45P     56
126,4,2,0,0,0,0,3.14159265358979,3.14159265358979,                    47P     57
3.14159265358979,4.71238898038469,4.71238898038469,                   47P     58
6.28318530717959,6.28318530717959,6.28318530717959,1.,                47P     59
0.707106781186548,1.,0.707106781186547,1.,2.90000000000001,-6.8,      47P     60
3.55147571752733D-16,2.90000000000001,-6.8,-2.90000000000001,         47P     61
2.9844643576291D-15,-6.8,-2.90000000000001,-2.9,-6.8,                 47P     62
-2.90000000000001,-2.9,-6.8,-7.10295143505467D-16,                    47P     63
3.14159265358979,6.28318530717959,0.,0.,0.;                           47P     64
126,4,2,0,0,0,0,0.,0.,0.,1.5707963267949,1.5707963267949,             49P     65
3.14159265358979,3.14159265358979,3.14159265358979,1.,                49P     66
0.707106781186547,1.,0.707106781186547,1.,-3.70000000000001,          49P     67
2.220446D-15,0.,-3.70000000000001,2.220446D-15,3.70000000000001,      49P     68
-3.30643057842261D-16,2.220446D-15,3.70000000000001,                  49P     69
3.70000000000001,2.220446D-15,3.70000000000001,3.70000000000001,      49P     70
2.220446D-15,4.53119315684521D-16,0.,3.14159265358979,0.,0.,0.;       49P     71
126,4,2,0,0,0,0,3.14159265358979,3.14159265358979,                    51P     72
3.14159265358979,4.71238898038469,4.71238898038469,                   51P     73
6.28318530717959,6.28318530717959,6.28318530717959,1.,                51P     74
0.707106781186548,1.,0.707106781186548,1.,3.70000000000001,           51P     75
2.220446D-15,4.53119315684521D-16,3.70000000000001,2.220446D-15,      51P     76
-3.70000000000001,5.75595573526782D-16,2.220446D-15,                  51P     77
-3.70000000000001,-3.7,2.220446D-15,-3.70000000000001,                51P     78
-3.70000000000001,2.220446D-15,-9.06238631369043D-16,                 51P     79
3.14159265358979,6.28318530717959,0.,0.,0.;                           51P     80
126,1,1,0,0,1,0,-0.918918918918918,-0.918918918918918,                53P     81
0.378378378378378,0.378378378378378,1.,1.,3.70000000000001,           53P     82
5.55111512312578D-15,0.,3.70000000000001,-4.8,0.,                     53P     83
-0.918918918918918,0.378378378378378,0.,0.,0.;                        53P     84
126,2,2,0,0,0,0,0.,0.,0.,1.57079632679265,1.57079632679265,           55P     85
1.57079632679265,1.,0.707106781187343,1.,-4.8,3.330669D-15,0.,        55P     86
-4.8,3.330669D-15,4.7999999999892,-1.0804555567232D-11,               55P     87
3.330669D-15,4.8,0.,1.57079632679265,0.,0.,0.;                        55P     88
126,6,2,0,0,0,0,1.57079632679265,1.57079632679265,                    57P     89
1.57079632679265,3.14159265358829,3.14159265358829,                   57P     90
4.71238898038394,4.71238898038394,6.28318530717959,                   57P     91
6.28318530717959,6.28318530717959,1.,0.707106781186282,1.,            57P     92
0.707106781186283,1.,0.707106781186282,1.,-1.0804555567232D-11,       57P     93
3.330669D-15,4.8,4.7999999999928,3.330669D-15,4.80000000001081,       57P     94
4.8,3.330669D-15,7.20335954286373D-12,4.80000000000721,               57P     95
3.330669D-15,-4.7999999999964,3.6032293325991D-12,3.330669D-15,       57P     96
-4.8,-4.8,3.330669D-15,-4.80000000000361,-4.8,3.330669D-15,           57P     97
-1.17566092718146D-15,1.57079632679265,6.28318530717959,0.,0.,        57P     98
0.;                                                                   57P     99
126,2,2,0,0,0,0,1.07583585073021,1.07583585073021,                    59P    100
1.07583585073021,1.5757994765996,1.5757994765996,                     59P    101
1.5757994765996,1.,0.968916921102373,1.,-1.08041165474278D-11,        59P    102
-9.61453139325386D-13,4.80000000000111,-1.226092330296D-11,           59P    103
1.21277411630704,2.5531935290453,-1.22455787976153D-11,               59P    104
1.20000000000001,-6.05819209932283D-11,1.07583585073021,              59P    105
1.5757994765996,0.,0.,0.;                                             59P    106
126,4,2,0,0,0,0,0.,0.,0.,1.5707963267949,1.5707963267949,             61P    107
3.14159265358979,3.14159265358979,3.14159265358979,1.,                61P    108
0.707106781186548,1.,0.707106781186548,1.,-2.90000000000001,          61P    109
1.110223D-15,0.,-2.90000000000001,1.110223D-15,2.90000000000001,      61P    110
-2.81657185876367D-16,1.110223D-15,2.90000000000001,                  61P    111
2.90000000000001,1.110223D-15,2.90000000000001,2.90000000000001,      61P    112
1.110223D-15,3.55147571752733D-16,0.,3.14159265358979,0.,0.,0.;       61P    113
126,4,2,0,0,0,0,3.14159265358979,3.14159265358979,                    63P    114
3.14159265358979,4.71238898038469,4.71238898038469,                   63P    115
6.28318530717959,6.28318530717959,6.28318530717959,1.,                63P    116
0.707106781186548,1.,0.707106781186547,1.,2.90000000000001,           63P    117
1.110223D-15,3.55147571752733D-16,2.90000000000001,1.110223D-15,      63P    118
-2.90000000000001,4.286379576291D-16,1.110223D-15,                    63P    119
-2.90000000000001,-2.90000000000001,1.110223D-15,                     63P    120
-2.90000000000001,-2.90000000000001,1.110223D-15,                     63P    121
-7.10295143505467D-16,3.14159265358979,6.28318530717959,0.,0.,        63P    122
0.;                                                                   63P    123
126,1,1,0,0,1,0,-1.17241379310345,-1.17241379310345,                  65P    124
1.17241379310345,1.17241379310345,1.,1.,2.90000000000001,-6.8,        65P    125
0.,2.90000000000001,3.33066907387547D-15,0.,-1.17241379310345,        65P    126
1.17241379310345,0.,0.,0.;                                            65P    127
128,1,8,1,2,0,1,0,0,1,-0.318995286974555,-0.318995286974555,          67P    128
0.318995286974555,0.318995286974555,-3.14159265358979,                67P    129
-3.14159265358979,-3.14159265358979,-1.5707963267949,                 67P    130
-1.5707963267949,0.,0.,1.5707963267949,1.5707963267949,               67P    131
3.14159265358979,3.14159265358979,3.14159265358979,1.,1.,             67P    132
0.707106781186548,0.707106781186548,1.,1.,0.707106781186548,          67P    133
0.707106781186548,1.,1.,0.707106781186548,0.707106781186548,1.,       67P    134
1.,0.707106781186548,0.707106781186548,1.,1.,-3.70000000000001,       67P    135
-4.8,0.,-2.9720595314676,-6.8,0.,-3.7,-4.8,3.70000000000001,          67P    136
-2.9720595314676,-6.8,2.9720595314676,1.7000292D-15,-4.8,             67P    137
3.70000000000001,2.4517428D-15,-6.8,2.9720595314676,                  67P    138
3.70000000000001,-4.79999999999999,3.70000000000001,                  67P    139
2.9720595314676,-6.8,2.9720595314676,3.70000000000001,                67P    140
-4.79999999999999,0.,2.9720595314676,-6.8,0.,3.70000000000001,        67P    141
-4.79999999999999,-3.70000000000001,2.9720595314676,-6.8,             67P    142
-2.9720595314676,1.7000292D-15,-4.8,-3.70000000000001,                67P    143
2.4517428D-15,-6.8,-2.9720595314676,-3.7,-4.8,-3.70000000000001,      67P    144
-2.9720595314676,-6.8,-2.9720595314676,-3.70000000000001,-4.8,        67P    145
0.,-2.9720595314676,-6.8,0.,-0.318995286974555,                       67P    146
0.318995286974555,-3.14159265358979,3.14159265358979;                 67P    147
128,1,1,1,1,0,0,1,0,0,-2.9730595314676,-2.9730595314676,              69P    148
2.9730595314676,2.9730595314676,0.326940468532404,                    69P    149
0.326940468532404,6.27305953146761,6.27305953146761,1.,1.,1.,1.,      69P    150
-2.9730595314676,-6.8,2.9730595314676,-2.9730595314676,-6.8,          69P    151
-2.9730595314676,2.97305953146761,-6.8,2.9730595314676,               69P    152
2.97305953146761,-6.8,-2.9730595314676,-2.9730595314676,              69P    153
2.9730595314676,0.326940468532404,6.27305953146761;                   69P    154
128,1,8,1,2,0,1,0,0,1,-0.378378378378378,-0.378378378378378,          71P    155
0.918918918918918,0.918918918918918,-3.14159265358979,                71P    156
-3.14159265358979,-3.14159265358979,-1.5707963267949,                 71P    157
-1.5707963267949,0.,0.,1.5707963267949,1.5707963267949,               71P    158
3.14159265358979,3.14159265358979,3.14159265358979,1.,1.,             71P    159
0.707106781186548,0.707106781186548,1.,1.,0.707106781186548,          71P    160
0.707106781186548,1.,1.,0.707106781186548,0.707106781186548,1.,       71P    161
1.,0.707106781186548,0.707106781186548,1.,1.,3.70000000000001,        71P    162
5.55111512312578D-15,0.,3.70000000000001,-4.8,0.,                     71P    163
3.70000000000001,5.55111512312578D-15,-3.70000000000001,              71P    164
3.70000000000001,-4.8,-3.70000000000001,-1.0408312D-16,               71P    165
3.88578058618805D-15,-3.70000000000001,1.70002952D-15,-4.8,           71P    166
-3.70000000000001,-3.70000000000001,2.22044604925031D-15,             71P    167
-3.70000000000001,-3.7,-4.8,-3.70000000000001,-3.70000000000001,      71P    168
2.22044604925031D-15,0.,-3.7,-4.8,0.,-3.70000000000001,               71P    169
2.22044604925031D-15,3.70000000000001,-3.7,-4.8,                      71P    170
3.70000000000001,-1.0408312D-16,3.88578058618805D-15,                 71P    171
3.70000000000001,1.70002952D-15,-4.8,3.70000000000001,                71P    172
3.70000000000001,5.55111512312578D-15,3.70000000000001,               71P    173
3.70000000000001,-4.8,3.70000000000001,3.70000000000001,              71P    174
5.55111512312578D-15,0.,3.70000000000001,-4.8,0.,                     71P    175
-0.378378378378378,0.918918918918918,-3.14159265358979,               71P    176
3.14159265358979;                                                     71P    177
128,1,1,1,1,0,0,1,0,0,-4.801,-4.801,4.80100000000001,                 73P    178
4.80100000000001,-0.550999999999999,-0.550999999999999,               73P    179
9.05100000000001,9.05100000000001,1.,1.,1.,1.,-4.801,                 73P    180
1.110223D-15,4.801,-4.801,1.110223D-15,-4.80100000000001,4.801,       73P    181
1.110223D-15,4.801,4.801,1.110223D-15,-4.80100000000001,-4.801,       73P    182
4.80100000000001,-0.550999999999999,9.05100000000001;                 73P    183
128,2,8,2,2,0,1,0,0,1,-1.5757994765996,-1.5757994765996,              75P    184
-1.5757994765996,-1.07583585073021,-1.07583585073021,                 75P    185
-1.07583585073021,-3.14159265358979,-3.14159265358979,                75P    186
-3.14159265358979,-1.5707963267949,-1.5707963267949,0.,0.,            75P    187
1.5707963267949,1.5707963267949,3.14159265358979,                     75P    188
3.14159265358979,3.14159265358979,1.,0.968916921102373,1.,            75P    189
0.707106781186548,0.685127725317879,0.707106781186548,1.,             75P    190
0.968916921102373,1.,0.707106781186548,0.685127725317879,             75P    191
0.707106781186548,1.,0.968916921102373,1.,0.707106781186548,          75P    192
0.685127725317879,0.707106781186548,1.,0.968916921102373,1.,          75P    193
0.707106781186548,0.685127725317879,0.707106781186548,1.,             75P    194
0.968916921102373,1.,-1.08041165474278D-11,                           75P    195
-9.61453139325386D-13,4.80000000000111,-1.226092330296D-11,           75P    196
1.21277411630704,2.5531935290453,-1.22455787976153D-11,               75P    197
1.20000000000001,-6.05819209932283D-11,-4.80000000006535,             75P    198
-6.72730213999857D-12,4.80000000000111,-2.55319352911822,             75P    199
1.21277411630398,2.5531935290453,-1.22456440650743D-11,               75P    200
1.20000000000001,-6.05819209932283D-11,-4.80000000006535,             75P    201
-3.53444108227366D-11,-5.34275735160386D-11,-2.55319352911822,        75P    202
1.21277411628876,-6.06581456776666D-11,-1.22456440650743D-11,         75P    203
1.20000000000001,-6.05819862606873D-11,-4.80000000006535,             75P    204
-6.39615195054746D-11,-4.80000000010797,-2.55319352911822,            75P    205
1.21277411627354,-2.55319352916662,-1.22456440650743D-11,             75P    206
1.20000000000001,-6.05820515281463D-11,-1.08041165474278D-11,         75P    207
-5.81956705048015D-11,-4.80000000010797,-1.226092330296D-11,          75P    208
1.2127741162766,-2.55319352916662,-1.22455787976153D-11,              75P    209
1.20000000000001,-6.05820515281463D-11,4.80000000004374,              75P    210
-5.24298215041283D-11,-4.80000000010797,2.5531935290937,              75P    211
1.21277411627967,-2.55319352916662,-1.22455135301562D-11,             75P    212
1.20000000000001,-6.05820515281463D-11,4.80000000004374,              75P    213
-2.38127128213902D-11,-5.34275735161074D-11,2.5531935290937,          75P    214
1.21277411629489,-6.06581456777032D-11,-1.22455135301562D-11,         75P    215
1.20000000000001,-6.05819862606873D-11,4.80000000004374,              75P    216
4.80439586134778D-12,4.80000000000111,2.5531935290937,                75P    217
1.21277411631011,2.5531935290453,-1.22455135301562D-11,               75P    218
1.20000000000001,-6.05819209932283D-11,-1.08041165474278D-11,         75P    219
-9.61453139325386D-13,4.80000000000111,-1.226092330296D-11,           75P    220
1.21277411630704,2.5531935290453,-1.22455787976153D-11,               75P    221
1.20000000000001,-6.05819209932283D-11,-1.5757994765996,              75P    222
-1.07583585073021,-3.14159265358979,3.14159265358979;                 75P    223
128,1,1,1,1,0,0,1,0,0,-2.90100000000001,-2.90100000000001,            77P    224
2.90100000000001,2.90100000000001,-1.451,-1.451,                      77P    225
4.35100000000001,4.35100000000001,1.,1.,1.,1.,-2.90100000000001,      77P    226
1.110223D-15,2.90100000000001,-2.90100000000001,1.110223D-15,         77P    227
-2.90100000000001,2.90100000000001,1.110223D-15,                      77P    228
2.90100000000001,2.90100000000001,1.110223D-15,                       77P    229
-2.90100000000001,-2.90100000000001,2.90100000000001,-1.451,          77P    230
4.35100000000001;                                                     77P    231
128,1,8,1,2,0,1,0,0,1,-1.17241379310345,-1.17241379310345,            79P    232
1.17241379310345,1.17241379310345,-3.14159265358979,                  79P    233
-3.14159265358979,-3.14159265358979,-1.5707963267949,                 79P    234
-1.5707963267949,0.,0.,1.5707963267949,1.5707963267949,               79P    235
3.14159265358979,3.14159265358979,3.14159265358979,1.,1.,             79P    236
0.707106781186548,0.707106781186548,1.,1.,0.707106781186548,          79P    237
0.707106781186548,1.,1.,0.707106781186548,0.707106781186548,1.,       79P    238
1.,0.707106781186548,0.707106781186548,1.,1.,2.90000000000001,        79P    239
-6.8,0.,2.90000000000001,3.33066907387547D-15,0.,                     79P    240
2.90000000000001,-6.8,-2.90000000000001,2.90000000000001,             79P    241
3.33066907387547D-15,-2.90000000000001,2.45174312D-15,-6.8,           79P    242
-2.90000000000001,-1.0408312D-16,2.22044604925031D-15,                79P    243
-2.90000000000001,-2.9,-6.8,-2.90000000000001,-2.90000000000001,      79P    244
1.11022302462516D-15,-2.90000000000001,-2.9,-6.8,0.,                  79P    245
-2.90000000000001,1.11022302462516D-15,0.,-2.9,-6.8,                  79P    246
2.90000000000001,-2.90000000000001,1.11022302462516D-15,              79P    247
2.90000000000001,2.45174312D-15,-6.8,2.90000000000001,                79P    248
-1.0408312D-16,2.22044604925031D-15,2.90000000000001,                 79P    249
2.90000000000001,-6.8,2.90000000000001,2.90000000000001,              79P    250
3.33066907387547D-15,2.90000000000001,2.90000000000001,-6.8,0.,       79P    251
2.90000000000001,3.33066907387547D-15,0.,-1.17241379310345,           79P    252
1.17241379310345,-3.14159265358979,3.14159265358979;                  79P    253
502,12,-3.70000000000001,-4.8,-4.531044D-16,3.70000000000001,         81P    254
-4.8,0.,-2.9720595314676,-6.8,3.639603D-16,-2.9,-6.8,0.,              81P    255
2.90000000000001,-6.8,0.,-3.70000000000001,1.110223D-15,0.,           81P    256
3.70000000000001,5.55111512312578D-15,0.,-4.8,1.110223D-15,0.,        81P    257
-1.08041165474278D-11,-9.61453139325386D-13,4.80000000000111,         81P    258
-1.22455787976153D-11,1.20000000000001,-6.05819862606873D-11,         81P    259
-2.90000000000001,0.,0.,2.90000000000001,3.33066907387547D-15,        81P    260
0.;                                                                   81P    261
504,15,37,81,1,81,2,39,81,2,81,1,41,81,1,81,3,43,81,3,81,3,45,        83P    262
81,4,81,5,47,81,5,81,4,49,81,6,81,7,51,81,7,81,6,53,81,7,81,2,        83P    263
55,81,8,81,9,57,81,9,81,8,59,81,9,81,10,61,81,11,81,12,63,81,12,      83P    264
81,11,65,81,5,81,12;                                                  83P    265
406,1,7HBryła1;                                                      85P    266
314,74.9019607843137,74.9019607843137,74.9019607843137,;              87P    267
314,0.,0.,0.,;                                                        89P    268
S      1G      3D     90P    268                                        T      1
