                                                                        S      1
,,,6H220006,22HAutodesk Inventor 2021,7Hunknown,32,38,7,99,15,,1.,2,2HMMG      1
,1,0.08,15H20221003.074141,0.01,10000.,13HMrówczyńska,,11,0,15H2010090G      2
5.121907;                                                               G      3
     186       1                                                00000000D      1
     186             -79       1       0                               0D      2
     514       2                                                00010000D      3
     514                       1       1                               0D      4
     510       3                                                00010000D      5
     510             -79       1       1                               0D      6
     510       4                                                00010000D      7
     510             -79       1       1                               0D      8
     510       5                                                00010000D      9
     510             -79       1       1                               0D     10
     510       6                                                00010000D     11
     510             -79       1       1                               0D     12
     510       7                                                00010000D     13
     510             -79       1       1                               0D     14
     510       8                                                00010000D     15
     510             -79       1       1                               0D     16
     508       9                                                00010000D     17
     508                       2       1                               0D     18
     508      11                                                00010000D     19
     508                       2       1                               0D     20
     508      13                                                00010000D     21
     508                       1       1                               0D     22
     508      14                                                00010000D     23
     508                       1       1                               0D     24
     508      15                                                00010000D     25
     508                       1       1                               0D     26
     508      16                                                00010000D     27
     508                       1       1                               0D     28
     508      17                                                00010000D     29
     508                       2       1                               0D     30
     126      19                                                00010000D     31
     126       0               5       0                               0D     32
     126      24                                                00010000D     33
     126       0               3       0                               0D     34
     126      27                                                00010000D     35
     126       0               6       0                               0D     36
     126      33                                                00010000D     37
     126       0               7       0                               0D     38
     126      40                                                00010000D     39
     126       0               6       0                               0D     40
     126      46                                                00010000D     41
     126       0               4       0                               0D     42
     126      50                                                00010000D     43
     126       0               5       0                               0D     44
     126      55                                                00010000D     45
     126       0               5       0                               0D     46
     126      60                                                00010000D     47
     126       0               7       0                               0D     48
     126      67                                                00010000D     49
     126       0               3       0                               0D     50
     126      70                                                00010000D     51
     126       0              11       0                               0D     52
     126      81                                                00010000D     53
     126       0               7       0                               0D     54
     126      88                                                00010000D     55
     126       0               8       0                               0D     56
     126      96                                                00010000D     57
     126       0               4       0                               0D     58
     128     100                                                00010000D     59
     128       0     -79      20       0                               0D     60
     128     120                                                00010000D     61
     128       0     -79      13       0                               0D     62
     128     133                                                00010000D     63
     128       0     -79       7       0                               0D     64
     128     140                                                00010000D     65
     128       0     -79      17       0                               0D     66
     128     157                                                00010000D     67
     128       0     -79       7       0                               0D     68
     128     164                                                00010000D     69
     128       0     -79      19       0                               0D     70
     502     183                                                00010000D     71
     502                       4       1                               0D     72
     504     187                                                00010001D     73
     504                       4       1                               0D     74
     406     191                                                00000000D     75
     406                       1      15                               0D     76
     314     192                                                00000200D     77
     314                       1       0                               0D     78
     314     193                                                00000200D     79
     314                       1       0                               0D     80
186,3,1,0,0,1,75;                                                      1P      1
514,6,5,1,7,1,9,1,11,1,13,1,15,1;                                      3P      2
510,59,1,1,17;                                                         5P      3
510,61,1,1,19;                                                         7P      4
510,63,2,1,21,23;                                                      9P      5
510,65,1,1,25;                                                        11P      6
510,67,1,1,27;                                                        13P      7
510,69,1,1,29;                                                        15P      8
508,8,0,73,1,1,0,0,73,2,1,0,0,73,3,1,0,0,73,4,1,0,0,73,5,1,0,0,       17P      9
73,2,0,0,0,73,6,1,0,0,73,7,1,0;                                       17P     10
508,7,0,73,8,0,0,0,73,9,0,0,0,73,10,1,0,0,73,6,0,0,0,73,1,0,0,0,      19P     11
73,7,0,0,0,73,10,0,0;                                                 19P     12
508,1,0,73,11,0,0;                                                    21P     13
508,2,0,73,8,1,0,0,73,9,1,0;                                          23P     14
508,1,0,73,11,1,0;                                                    25P     15
508,2,0,73,12,0,0,0,73,13,0,0;                                        27P     16
508,7,0,73,4,0,0,0,73,3,0,0,0,73,5,0,0,0,73,14,1,0,0,73,13,1,0,       29P     17
0,73,12,1,0,0,73,14,0,0;                                              29P     18
126,2,2,0,0,0,0,-3.14159265358979,-3.14159265358979,                  31P     19
-3.14159265358979,-1.5707963267949,-1.5707963267949,                  31P     20
-1.5707963267949,1.,0.707106781186547,1.,-3.,-3.6,                    31P     21
-3.67394039744205D-16,-3.,-3.6,-3.,1.83697019872103D-16,-3.6,         31P     22
-3.,-3.14159265358979,-1.5707963267949,0.,0.,0.;                      31P     23
126,2,2,0,0,0,0,0.,0.,0.,1.5707963267949,1.5707963267949,             33P     24
1.5707963267949,1.,0.707106781186545,1.,0.,-3.6,-3.,0.,-4.,-3.,       33P     25
0.,-4.,-2.59999999999999,0.,1.5707963267949,0.,0.,0.;                 33P     26
126,2,2,0,0,0,0,4.71238898038469,4.71238898038469,                    35P     27
4.71238898038469,6.28318530717959,6.28318530717959,                   35P     28
6.28318530717959,1.,0.707106781186548,1.,4.77612251667467D-16,        35P     29
-4.,-2.59999999999999,-2.59999999999999,-4.,-2.59999999999999,        35P     30
-2.59999999999999,-4.,-6.36816335556622D-16,4.71238898038469,         35P     31
6.28318530717959,0.,0.,0.;                                            35P     32
126,4,2,0,0,0,0,0.,0.,0.,1.5707963267949,1.5707963267949,             37P     33
3.14159265358979,3.14159265358979,3.14159265358979,1.,                37P     34
0.707106781186548,1.,0.707106781186548,1.,-2.59999999999999,-4.,      37P     35
0.,-2.59999999999999,-4.,2.59999999999999,-1.59204083889156D-16,      37P     36
-4.,2.59999999999999,2.59999999999999,-4.,2.59999999999999,           37P     37
2.59999999999999,-4.,3.18408167778311D-16,0.,3.14159265358979,        37P     38
0.,0.,0.;                                                             37P     39
126,2,2,0,0,0,0,3.14159265358979,3.14159265358979,                    39P     40
3.14159265358979,4.71238898038469,4.71238898038469,                   39P     41
4.71238898038469,1.,0.707106781186548,1.,2.59999999999999,-4.,        39P     42
3.18408167778311D-16,2.59999999999999,-4.,-2.59999999999999,          39P     43
4.77612251667467D-16,-4.,-2.59999999999999,3.14159265358979,          39P     44
4.71238898038469,0.,0.,0.;                                            39P     45
126,2,2,0,0,0,0,-1.5707963267949,-1.5707963267949,                    41P     46
-1.5707963267949,0.,0.,0.,1.,0.707106781186547,1.,                    41P     47
1.83697019872103D-16,-3.6,-3.,3.,-3.6,-3.,3.,-3.6,0.,                 41P     48
-1.5707963267949,0.,0.,0.,0.;                                         41P     49
126,4,2,0,0,0,0,0.,0.,0.,1.5707963267949,1.5707963267949,             43P     50
3.14159265358979,3.14159265358979,3.14159265358979,1.,                43P     51
0.707106781186547,1.,0.707106781186547,1.,3.,-3.6,0.,3.,-3.6,3.,      43P     52
1.83697019872103D-16,-3.6,3.,-3.,-3.6,3.,-3.,-3.6,                    43P     53
3.67394039744205D-16,0.,3.14159265358979,0.,0.,0.;                    43P     54
126,4,2,0,0,0,0,0.,0.,0.,1.5707963267949,1.5707963267949,             45P     55
3.14159265358979,3.14159265358979,3.14159265358979,1.,                45P     56
0.707106781186547,1.,0.707106781186547,1.,-3.,0.,0.,-3.,0.,3.,        45P     57
-1.83697019872103D-16,0.,3.,3.,0.,3.,3.,0.,3.67394039744205D-16,      45P     58
0.,3.14159265358979,0.,0.,0.;                                         45P     59
126,4,2,0,0,0,0,3.14159265358979,3.14159265358979,                    47P     60
3.14159265358979,4.71238898038469,4.71238898038469,                   47P     61
6.28318530717959,6.28318530717959,6.28318530717959,1.,                47P     62
0.707106781186548,1.,0.707106781186547,1.,3.,0.,                      47P     63
3.67394039744205D-16,3.,0.,-3.,5.51091059616308D-16,0.,-3.,-3.,       47P     64
0.,-3.,-3.,0.,-7.34788079488411D-16,3.14159265358979,                 47P     65
6.28318530717959,0.,0.,0.;                                            47P     66
126,1,1,0,0,1,0,-0.666666666666668,-0.666666666666668,                49P     67
0.533333333333334,0.533333333333334,1.,1.,3.,0.,0.,3.,-3.6,0.,        49P     68
-0.666666666666668,0.533333333333334,0.,0.,0.;                        49P     69
126,8,2,0,1,0,0,0.,0.,0.,1.5707963267949,1.5707963267949,             51P     70
3.14159265358979,3.14159265358979,4.71238898038469,                   51P     71
4.71238898038469,6.28318530717959,6.28318530717959,                   51P     72
6.28318530717959,1.,0.707106781186548,1.,0.707106781186548,1.,        51P     73
0.707106781186548,1.,0.707106781186548,1.,-3.49999999999999,0.,       51P     74
0.,-3.49999999999999,0.,3.49999999999999,-2.14313189850786D-16,       51P     75
0.,3.49999999999999,3.49999999999999,0.,3.49999999999999,             51P     76
3.49999999999999,0.,4.28626379701573D-16,3.49999999999999,0.,         51P     77
-3.49999999999999,6.42939569552359D-16,0.,-3.49999999999999,          51P     78
-3.49999999999999,0.,-3.49999999999999,-3.49999999999999,0.,          51P     79
-8.57252759403146D-16,0.,6.28318530717959,0.,0.,0.;                   51P     80
126,4,2,0,0,0,0,0.,0.,0.,1.5707963267949,1.5707963267949,             53P     81
3.14159265358979,3.14159265358979,3.14159265358979,1.,                53P     82
0.707106781186548,1.,0.707106781186548,1.,-2.59999999999999,0.,       53P     83
0.,-2.59999999999999,0.,2.59999999999999,-1.59204083889156D-16,       53P     84
0.,2.59999999999999,2.59999999999999,0.,2.59999999999999,             53P     85
2.59999999999999,0.,3.18408167778311D-16,0.,3.14159265358979,0.,      53P     86
0.,0.;                                                                53P     87
126,4,2,0,0,0,0,3.14159265358979,3.14159265358979,                    55P     88
3.14159265358979,4.71238898038469,4.71238898038469,                   55P     89
6.28318530717959,6.28318530717959,6.28318530717959,1.,                55P     90
0.707106781186548,1.,0.707106781186548,1.,2.59999999999999,0.,        55P     91
3.18408167778311D-16,2.59999999999999,0.,-2.59999999999999,           55P     92
4.77612251667467D-16,0.,-2.59999999999999,-2.59999999999999,0.,       55P     93
-2.59999999999999,-2.59999999999999,0.,-6.36816335556622D-16,         55P     94
3.14159265358979,6.28318530717959,0.,0.,0.;                           55P     95
126,1,1,0,0,1,0,-0.769230769230771,-0.769230769230771,                57P     96
0.769230769230771,0.769230769230771,1.,1.,2.59999999999999,-4.,       57P     97
0.,2.59999999999999,0.,0.,-0.769230769230771,0.769230769230771,       57P     98
0.,0.,0.;                                                             57P     99
128,2,8,2,2,0,1,0,0,1,-1.5707963267949,-1.5707963267949,              59P    100
-1.5707963267949,0.,0.,0.,-3.14159265358979,-3.14159265358979,        59P    101
-3.14159265358979,-1.5707963267949,-1.5707963267949,0.,0.,            59P    102
1.5707963267949,1.5707963267949,3.14159265358979,                     59P    103
3.14159265358979,3.14159265358979,1.,0.707106781186545,1.,            59P    104
0.707106781186548,0.499999999999998,0.707106781186548,1.,             59P    105
0.707106781186545,1.,0.707106781186548,0.499999999999998,             59P    106
0.707106781186548,1.,0.707106781186545,1.,0.707106781186548,          59P    107
0.499999999999998,0.707106781186548,1.,0.707106781186545,1.,          59P    108
0.707106781186548,0.499999999999998,0.707106781186548,1.,             59P    109
0.707106781186545,1.,0.,-3.6,-3.,0.,-4.,-3.,0.,-4.,                   59P    110
-2.59999999999999,-3.,-3.6,-3.,-3.,-4.,-3.,-2.59999999999999,         59P    111
-4.,-2.59999999999999,-3.,-3.6,0.,-3.,-4.,0.,-2.59999999999999,       59P    112
-4.,0.,-3.,-3.6,3.,-3.,-4.,3.,-2.59999999999999,-4.,                  59P    113
2.59999999999999,0.,-3.6,3.,0.,-4.,3.,0.,-4.,2.59999999999999,        59P    114
3.,-3.6,3.,3.,-4.,3.,2.59999999999999,-4.,2.59999999999999,3.,        59P    115
-3.6,0.,3.,-4.,0.,2.59999999999999,-4.,0.,3.,-3.6,-3.,3.,-4.,         59P    116
-3.,2.59999999999999,-4.,-2.59999999999999,0.,-3.6,-3.,0.,-4.,        59P    117
-3.,0.,-4.,-2.59999999999999,-1.5707963267949,0.,                     59P    118
-3.14159265358979,3.14159265358979;                                   59P    119
128,1,8,1,2,0,1,0,0,1,-0.533333333333334,-0.533333333333334,          61P    120
0.666666666666668,0.666666666666668,-3.14159265358979,                61P    121
-3.14159265358979,-3.14159265358979,-1.5707963267949,                 61P    122
-1.5707963267949,0.,0.,1.5707963267949,1.5707963267949,               61P    123
3.14159265358979,3.14159265358979,3.14159265358979,1.,1.,             61P    124
0.707106781186548,0.707106781186548,1.,1.,0.707106781186548,          61P    125
0.707106781186548,1.,1.,0.707106781186548,0.707106781186548,1.,       61P    126
1.,0.707106781186548,0.707106781186548,1.,1.,3.,0.,0.,3.,-3.6,        61P    127
0.,3.,0.,-3.,3.,-3.6,-3.,0.,0.,-3.,0.,-3.6,-3.,-3.,0.,-3.,-3.,        61P    128
-3.6,-3.,-3.,0.,0.,-3.,-3.6,0.,-3.,0.,3.,-3.,-3.6,3.,0.,0.,3.,        61P    129
0.,-3.6,3.,3.,0.,3.,3.,-3.6,3.,3.,0.,0.,3.,-3.6,0.,                   61P    130
-0.533333333333334,0.666666666666668,-3.14159265358979,               61P    131
3.14159265358979;                                                     61P    132
128,1,1,1,1,0,0,1,0,0,-3.50099999999999,-3.50099999999999,            63P    133
3.50099999999999,3.50099999999999,-0.250999999999999,                 63P    134
-0.250999999999999,6.75099999999999,6.75099999999999,1.,1.,1.,        63P    135
1.,-3.50099999999999,0.,3.50099999999999,-3.50099999999999,0.,        63P    136
-3.50099999999999,3.501,0.,3.50099999999999,3.501,0.,                 63P    137
-3.50099999999999,-3.50099999999999,3.50099999999999,                 63P    138
-0.250999999999999,6.75099999999999;                                  63P    139
128,2,2,2,2,0,0,0,0,0,-0.573078791633584,-0.573078791633584,          65P    140
-0.573078791633584,0.573471435426377,0.573471435426377,               65P    141
0.573471435426377,0.973554984523927,0.973554984523927,                65P    142
0.973554984523927,2.12739564480512,2.12739564480512,                  65P    143
2.12739564480512,1.,0.840129106831729,1.,0.838146413391703,           65P    144
0.704151197676989,0.838146413391703,1.,0.840129106831729,1.,          65P    145
3.12963716001634,-1.02323258731402,3.59440299996903,                  65P    146
4.43462575807312,0.89560135330584,0.00154813414354554,                65P    147
3.13043059363217,-1.02206593547204,-3.59221760143507,                 65P    148
0.134918781825321,1.0134592051336,3.59440299996903,                   65P    149
0.191176891933148,3.78154800534431,0.00154813414354554,               65P    150
0.1349529867799,1.01514220428698,-3.59221760143507,                   65P    151
-2.94007912905563,-0.899872828303434,3.59440299996903,                65P    152
-4.16602627392603,1.07039936880971,0.00154813414354554,               65P    153
-2.94082450543472,-0.898674901979897,-3.59221760143507,               65P    154
-0.573078791633584,0.573471435426377,0.973554984523927,               65P    155
2.12739564480512;                                                     65P    156
128,1,1,1,1,0,0,1,0,0,-2.60099999999999,-2.60099999999999,            67P    157
2.60099999999999,2.60099999999999,-1.301,-1.301,                      67P    158
3.90099999999999,3.90099999999999,1.,1.,1.,1.,-2.60099999999999,      67P    159
0.,2.60099999999999,-2.60099999999999,0.,-2.60099999999999,           67P    160
2.60099999999999,0.,2.60099999999999,2.60099999999999,0.,             67P    161
-2.60099999999999,-2.60099999999999,2.60099999999999,-1.301,          67P    162
3.90099999999999;                                                     67P    163
128,1,8,1,2,0,1,0,0,1,-0.769230769230771,-0.769230769230771,          69P    164
0.769230769230771,0.769230769230771,-3.14159265358979,                69P    165
-3.14159265358979,-3.14159265358979,-1.5707963267949,                 69P    166
-1.5707963267949,0.,0.,1.5707963267949,1.5707963267949,               69P    167
3.14159265358979,3.14159265358979,3.14159265358979,1.,1.,             69P    168
0.707106781186548,0.707106781186548,1.,1.,0.707106781186548,          69P    169
0.707106781186548,1.,1.,0.707106781186548,0.707106781186548,1.,       69P    170
1.,0.707106781186548,0.707106781186548,1.,1.,2.59999999999999,        69P    171
-4.,0.,2.59999999999999,0.,0.,2.59999999999999,-4.,                   69P    172
-2.59999999999999,2.59999999999999,0.,-2.59999999999999,0.,-4.,       69P    173
-2.59999999999999,0.,0.,-2.59999999999999,-2.59999999999999,-4.,      69P    174
-2.59999999999999,-2.59999999999999,0.,-2.59999999999999,             69P    175
-2.59999999999999,-4.,0.,-2.59999999999999,0.,0.,                     69P    176
-2.59999999999999,-4.,2.59999999999999,-2.59999999999999,0.,          69P    177
2.59999999999999,0.,-4.,2.59999999999999,0.,0.,2.59999999999999,      69P    178
2.59999999999999,-4.,2.59999999999999,2.59999999999999,0.,            69P    179
2.59999999999999,2.59999999999999,-4.,0.,2.59999999999999,0.,0.,      69P    180
-0.769230769230771,0.769230769230771,-3.14159265358979,               69P    181
3.14159265358979;                                                     69P    182
502,11,-3.,-3.6,-7.347638D-16,0.,-3.6,-3.,0.,-4.,                     71P    183
-2.59999999999999,-2.59999999999999,-4.,0.,2.59999999999999,-4.,      71P    184
0.,3.,-3.6,0.,-3.,0.,0.,3.,0.,0.,-3.49999999999999,0.,0.,             71P    185
-2.59999999999999,0.,0.,2.59999999999999,0.,0.;                       71P    186
504,14,31,71,1,71,2,33,71,2,71,3,35,71,3,71,4,37,71,4,71,5,39,        73P    187
71,5,71,3,41,71,2,71,6,43,71,6,71,1,45,71,7,71,8,47,71,8,71,7,        73P    188
49,71,8,71,6,51,71,9,71,9,53,71,10,71,11,55,71,11,71,10,57,71,5,      73P    189
71,11;                                                                73P    190
406,1,7HBryła1;                                                      75P    191
314,74.9019607843137,74.9019607843137,74.9019607843137,;              77P    192
314,0.,0.,0.,;                                                        79P    193
S      1G      3D     80P    193                                        T      1
