                                                                        S      1
,,,6H215010,22HAutodesk Inventor 2021,7Hunknown,32,38,7,99,15,,1.,2,2HMMG      1
,1,0.08,15H20230127.112738,0.01,10000.,9HKrajewski,,11,0,15H20181012.000G      2
000;                                                                    G      3
     186       1                                                00000000D      1
     186             -51       1       0                               0D      2
     514       2                                                00010000D      3
     514                       1       1                               0D      4
     510       3                                                00010000D      5
     510             -51       1       1                               0D      6
     510       4                                                00010000D      7
     510             -51       1       1                               0D      8
     510       5                                                00010000D      9
     510             -51       1       1                               0D     10
     510       6                                                00010000D     11
     510             -51       1       1                               0D     12
     508       7                                                00010000D     13
     508                       1       1                               0D     14
     508       8                                                00010000D     15
     508                       1       1                               0D     16
     508       9                                                00010000D     17
     508                       1       1                               0D     18
     508      10                                                00010000D     19
     508                       1       1                               0D     20
     508      11                                                00010000D     21
     508                       1       1                               0D     22
     508      12                                                00010000D     23
     508                       1       1                               0D     24
     126      13                                                00010000D     25
     126       0              10       0                               0D     26
     126      23                                                00010000D     27
     126       0               2       0                               0D     28
     126      25                                                00010000D     29
     126       0              10       0                               0D     30
     126      35                                                00010000D     31
     126       0              10       0                               0D     32
     126      45                                                00010000D     33
     126       0               2       0                               0D     34
     126      47                                                00010000D     35
     126       0              10       0                               0D     36
     128      57                                                00010000D     37
     128       0     -51      12       0                               0D     38
     128      69                                                00010000D     39
     128       0     -51      11       0                               0D     40
     128      80                                                00010000D     41
     128       0     -51       3       0                               0D     42
     128      83                                                00010000D     43
     128       0     -51       3       0                               0D     44
     502      86                                                00010000D     45
     502                       2       1                               0D     46
     504      88                                                00010001D     47
     504                       2       1                               0D     48
     406      90                                                00000000D     49
     406                       1      15                               0D     50
     314      91                                                00000200D     51
     314                       1       0                               0D     52
186,3,1,0,0,1,49;                                                      1P      1
514,4,5,1,7,1,9,1,11,1;                                                3P      2
510,37,1,1,13;                                                         5P      3
510,39,1,1,15;                                                         7P      4
510,41,2,1,17,19;                                                      9P      5
510,43,2,1,21,23;                                                     11P      6
508,4,0,47,1,0,0,0,47,2,1,0,0,47,3,0,0,0,47,2,0,0;                    13P      7
508,4,0,47,4,1,0,0,47,5,1,0,0,47,6,0,0,0,47,5,0,0;                    15P      8
508,1,0,47,4,0,0;                                                     17P      9
508,1,0,47,3,1,0;                                                     19P     10
508,1,0,47,6,1,0;                                                     21P     11
508,1,0,47,1,1,0;                                                     23P     12
126,8,2,0,1,0,0,-3.14159265358979,-3.14159265358979,                  25P     13
-3.14159265358979,-1.5707963267949,-1.5707963267949,0.,0.,            25P     14
1.5707963267949,1.5707963267949,3.14159265358979,                     25P     15
3.14159265358979,3.14159265358979,1.,0.707106781186548,1.,            25P     16
0.707106781186548,1.,0.707106781186548,1.,0.707106781186548,1.,       25P     17
0.,5.25,6.42939569552361D-16,0.,5.25,5.25,0.,                         25P     18
-3.2146978477618D-16,5.25,0.,-5.25,5.25,0.,-5.25,0.,0.,-5.25,         25P     19
-5.25,0.,-3.2146978477618D-16,-5.25,0.,5.25,-5.25,0.,5.25,            25P     20
-6.42939569552361D-16,-3.14159265358979,3.14159265358979,0.,0.,       25P     21
0.;                                                                   25P     22
126,1,1,0,0,1,0,0.,0.,0.380952380952381,0.380952380952381,1.,1.,      27P     23
0.,5.25,0.,2.,5.25,0.,0.,0.380952380952381,0.,0.,0.;                  27P     24
126,8,2,0,1,0,0,-3.14159265358979,-3.14159265358979,                  29P     25
-3.14159265358979,-1.5707963267949,-1.5707963267949,0.,0.,            29P     26
1.5707963267949,1.5707963267949,3.14159265358979,                     29P     27
3.14159265358979,3.14159265358979,1.,0.707106781186548,1.,            29P     28
0.707106781186548,1.,0.707106781186548,1.,0.707106781186548,1.,       29P     29
2.,5.25,-6.42939569552361D-16,2.,5.25,-5.25,2.,                       29P     30
-3.2146978477618D-16,-5.25,2.,-5.25,-5.25,2.,-5.25,0.,2.,-5.25,       29P     31
5.25,2.,-3.2146978477618D-16,5.25,2.,5.25,5.25,2.,5.25,               29P     32
6.42939569552361D-16,-3.14159265358979,3.14159265358979,0.,0.,        29P     33
0.;                                                                   29P     34
126,8,2,0,1,0,0,-3.14159265358979,-3.14159265358979,                  31P     35
-3.14159265358979,-1.5707963267949,-1.5707963267949,0.,0.,            31P     36
1.5707963267949,1.5707963267949,3.14159265358979,                     31P     37
3.14159265358979,3.14159265358979,1.,0.707106781186548,1.,            31P     38
0.707106781186548,1.,0.707106781186548,1.,0.707106781186548,1.,       31P     39
2.,10.,-1.22464679914735D-15,2.,10.,-10.,2.,                          31P     40
-6.12323399573677D-16,-10.,2.,-10.,-10.,2.,-10.,0.,2.,-10.,10.,       31P     41
2.,-6.12323399573677D-16,10.,2.,10.,10.,2.,10.,                       31P     42
1.22464679914735D-15,-3.14159265358979,3.14159265358979,0.,0.,        31P     43
0.;                                                                   31P     44
126,1,1,0,0,1,0,-0.2,-0.2,0.,0.,1.,1.,2.,10.,0.,0.,10.,0.,-0.2,       33P     45
0.,0.,0.,0.;                                                          33P     46
126,8,2,0,1,0,0,-3.14159265358979,-3.14159265358979,                  35P     47
-3.14159265358979,-1.5707963267949,-1.5707963267949,0.,0.,            35P     48
1.5707963267949,1.5707963267949,3.14159265358979,                     35P     49
3.14159265358979,3.14159265358979,1.,0.707106781186548,1.,            35P     50
0.707106781186548,1.,0.707106781186548,1.,0.707106781186548,1.,       35P     51
0.,10.,-1.22464679914735D-15,0.,10.,-10.,0.,                          35P     52
-6.12323399573677D-16,-10.,0.,-10.,-10.,0.,-10.,0.,0.,-10.,10.,       35P     53
0.,-6.12323399573677D-16,10.,0.,10.,10.,0.,10.,                       35P     54
1.22464679914735D-15,-3.14159265358979,3.14159265358979,0.,0.,        35P     55
0.;                                                                   35P     56
128,1,8,1,2,0,1,0,0,1,0.,0.,0.380952380952381,0.380952380952381,      37P     57
-3.14159265358979,-3.14159265358979,-3.14159265358979,                37P     58
-1.5707963267949,-1.5707963267949,0.,0.,1.5707963267949,              37P     59
1.5707963267949,3.14159265358979,3.14159265358979,                    37P     60
3.14159265358979,1.,1.,0.707106781186548,0.707106781186548,1.,        37P     61
1.,0.707106781186548,0.707106781186548,1.,1.,0.707106781186548,       37P     62
0.707106781186548,1.,1.,0.707106781186548,0.707106781186548,1.,       37P     63
1.,0.,5.25,0.,2.,5.25,0.,0.,5.25,5.25,2.,5.25,5.25,0.,0.,5.25,        37P     64
2.,0.,5.25,0.,-5.25,5.25,2.,-5.25,5.25,0.,-5.25,0.,2.,-5.25,0.,       37P     65
0.,-5.25,-5.25,2.,-5.25,-5.25,0.,0.,-5.25,2.,0.,-5.25,0.,5.25,        37P     66
-5.25,2.,5.25,-5.25,0.,5.25,0.,2.,5.25,0.,0.,0.380952380952381,       37P     67
-3.14159265358979,3.14159265358979;                                   37P     68
128,1,8,1,2,0,1,0,0,1,0.,0.,0.2,0.2,-3.14159265358979,                39P     69
-3.14159265358979,-3.14159265358979,-1.5707963267949,                 39P     70
-1.5707963267949,0.,0.,1.5707963267949,1.5707963267949,               39P     71
3.14159265358979,3.14159265358979,3.14159265358979,1.,1.,             39P     72
0.707106781186548,0.707106781186548,1.,1.,0.707106781186548,          39P     73
0.707106781186548,1.,1.,0.707106781186548,0.707106781186548,1.,       39P     74
1.,0.707106781186548,0.707106781186548,1.,1.,2.,10.,0.,0.,10.,        39P     75
0.,2.,10.,10.,0.,10.,10.,2.,0.,10.,0.,0.,10.,2.,-10.,10.,0.,          39P     76
-10.,10.,2.,-10.,0.,0.,-10.,0.,2.,-10.,-10.,0.,-10.,-10.,2.,0.,       39P     77
-10.,0.,0.,-10.,2.,10.,-10.,0.,10.,-10.,2.,10.,0.,0.,10.,0.,0.,       39P     78
0.2,-3.14159265358979,3.14159265358979;                               39P     79
128,1,1,1,1,0,0,1,0,0,-1.001,-1.001,1.001,1.001,-1.001,-1.001,        41P     80
1.001,1.001,1.,1.,1.,1.,2.,-10.01,10.01,2.,-10.01,-10.01,2.,          41P     81
10.01,10.01,2.,10.01,-10.01,-1.001,1.001,-1.001,1.001;                41P     82
128,1,1,1,1,0,0,1,0,0,-1.001,-1.001,1.001,1.001,-1.001,-1.001,        43P     83
1.001,1.001,1.,1.,1.,1.,0.,-10.01,-10.01,0.,-10.01,10.01,0.,          43P     84
10.01,-10.01,0.,10.01,10.01,-1.001,1.001,-1.001,1.001;                43P     85
502,4,0.,5.25,6.42939569552361D-16,2.,5.25,6.42939569552361D-16,      45P     86
2.,10.,1.22464679914735D-15,0.,10.,1.22464679914735D-15;              45P     87
504,6,25,45,1,45,1,27,45,1,45,2,29,45,2,45,2,31,45,3,45,3,33,45,      47P     88
3,45,4,35,45,4,45,4;                                                  47P     89
406,1,6HSolid1;                                                       49P     90
314,87.843137254902,87.4509803921569,85.8823529411765,;               51P     91
S      1G      3D     52P     91                                        T      1
