                                                                        S      1
,,,6H210826,22HAutodesk Inventor 2021,7Hunknown,32,38,7,99,15,,1.,2,2HMMG      1
,1,0.08,15H20230120.072641,0.01,10000.,13Haluteckkpl_kk,,11,0,15H2015112G      2
7.000000;                                                               G      3
     143       1                       1                        00000000D      1
     143       0    -153       1       0                               0D      2
     143       2                       1                        00000000D      3
     143       0    -153       1       0                               0D      4
     141       3                                                00010000D      5
     141       0               1       0                               0D      6
     141       4                                                00010000D      7
     141       0               1       0                               0D      8
     186       5                                                00000000D      9
     186            -153       1       0                               0D     10
     514       6                                                00010000D     11
     514                       1       1                               0D     12
     510       7                                                00010000D     13
     510            -153       1       1                               0D     14
     510       8                                                00010000D     15
     510            -153       1       1                               0D     16
     510       9                                                00010000D     17
     510            -153       1       1                               0D     18
     510      10                                                00010000D     19
     510            -153       1       1                               0D     20
     510      11                                                00010000D     21
     510            -153       1       1                               0D     22
     510      12                                                00010000D     23
     510            -153       1       1                               0D     24
     510      13                                                00010000D     25
     510            -153       1       1                               0D     26
     510      14                                                00010000D     27
     510            -153       1       1                               0D     28
     510      15                                                00010000D     29
     510            -153       1       1                               0D     30
     508      16                                                00010000D     31
     508                       2       1                               0D     32
     508      18                                                00010000D     33
     508                       2       1                               0D     34
     508      20                                                00010000D     35
     508                       1       1                               0D     36
     508      21                                                00010000D     37
     508                       1       1                               0D     38
     508      22                                                00010000D     39
     508                       1       1                               0D     40
     508      23                                                00010000D     41
     508                       1       1                               0D     42
     508      24                                                00010000D     43
     508                       1       1                               0D     44
     508      25                                                00010000D     45
     508                       1       1                               0D     46
     508      26                                                00010000D     47
     508                       1       1                               0D     48
     508      27                                                00010000D     49
     508                       1       1                               0D     50
     508      28                                                00010000D     51
     508                       2       1                               0D     52
     126      30                                                00010000D     53
     126       0               7       0                               0D     54
     126      37                                                00010000D     55
     126       0               9       0                               0D     56
     126      46                                                00010000D     57
     126       0               4       0                               0D     58
     126      50                                                00010000D     59
     126       0              10       0                               0D     60
     126      60                                                00010000D     61
     126       0               2       0                               0D     62
     126      62                                                00010000D     63
     126       0               2       0                               0D     64
     126      64                                                00010000D     65
     126       0               2       0                               0D     66
     126      66                                                00010000D     67
     126       0               2       0                               0D     68
     126      68                                                00010000D     69
     126       0               2       0                               0D     70
     126      70                                                00010000D     71
     126       0               2       0                               0D     72
     126      72                                                00010000D     73
     126       0               2       0                               0D     74
     126      74                                                00010000D     75
     126       0               2       0                               0D     76
     126      76                                                00010000D     77
     126       0               2       0                               0D     78
     126      78                                                00010000D     79
     126       0               2       0                               0D     80
     126      80                                                00010000D     81
     126       0               2       0                               0D     82
     126      82                                                00010000D     83
     126       0               2       0                               0D     84
     126      84                                                00010000D     85
     126       0               2       0                               0D     86
     126      86                                                00010000D     87
     126       0               2       0                               0D     88
     126      88                                                00010000D     89
     126       0               2       0                               0D     90
     126      90                                                00010000D     91
     126       0               2       0                               0D     92
     126      92                                                00010000D     93
     126       0               3       0                               0D     94
     126      95                                                00010000D     95
     126       0               2       0                               0D     96
     126      97                                                00010000D     97
     126       0               2       0                               0D     98
     126      99                                                00010000D     99
     126       0               3       0                               0D    100
     126     102                                                00010000D    101
     126       0               2       0                               0D    102
     126     104                                                00010000D    103
     126       0               3       0                               0D    104
     126     107                                                00010000D    105
     126       0               2       0                               0D    106
     126     109                                                00010000D    107
     126       0               2       0                               0D    108
     126     111                                                00010000D    109
     126       0               2       0                               0D    110
     126     113                                                00010000D    111
     126       0               2       0                               0D    112
     126     115                                                00010000D    113
     126       0               2       0                               0D    114
     126     117                                                00010000D    115
     126       0               4       0                               0D    116
     126     121                                                00010000D    117
     126       0               2       0                               0D    118
     126     123                                                00010000D    119
     126       0               4       0                               0D    120
     128     127                                                00010000D    121
     128       0    -153      18       0                               0D    122
     128     145                                                00010000D    123
     128       0    -153       5       0                               0D    124
     128     150                                                00010000D    125
     128       0    -153       3       0                               0D    126
     128     153                                                00010000D    127
     128       0    -153       7       0                               0D    128
     128     160                                                00010000D    129
     128       0    -153       3       0                               0D    130
     128     163                                                00010000D    131
     128       0    -153       6       0                               0D    132
     128     169                                                00010000D    133
     128       0    -153       4       0                               0D    134
     128     173                                                00010000D    135
     128       0    -153       4       0                               0D    136
     128     177                                                00010000D    137
     128       0    -153       5       0                               0D    138
     128     182                                                00010000D    139
     128       0               5       0                               0D    140
     128     187                                                00010000D    141
     128       0               5       0                               0D    142
     502     192                                                00010000D    143
     502                       5       1                               0D    144
     504     197                                                00010001D    145
     504                       6       1                               0D    146
     406     203                                                00000000D    147
     406                       1      15                               0D    148
     406     204                                                00000000D    149
     406                       1      15                               0D    150
     406     205                       1                        00000000D    151
     406            -153       1       3                               0D    152
     314     206                                                00000200D    153
     314                       1       0                               0D    154
143,0,139,1,5,0,1,149;                                                 1P      1
143,0,141,1,7,0,1,149;                                                 3P      2
141,0,1,139,6,97,1,0,99,1,0,101,1,0,103,1,0,105,1,0,107,1,0;           5P      3
141,0,1,141,6,109,2,0,111,2,0,113,2,0,115,2,0,117,2,0,119,2,0;         7P      4
186,11,1,0,0,1,147;                                                    9P      5
514,9,13,1,15,1,17,1,19,1,21,1,23,1,25,1,27,1,29,1;                   11P      6
510,121,1,1,31;                                                       13P      7
510,123,1,1,33;                                                       15P      8
510,125,1,1,35;                                                       17P      9
510,127,1,1,37;                                                       19P     10
510,129,2,1,39,41;                                                    21P     11
510,131,1,1,43;                                                       23P     12
510,133,1,1,45;                                                       25P     13
510,135,2,1,47,49;                                                    27P     14
510,137,1,1,51;                                                       29P     15
508,5,0,145,1,0,0,0,145,2,0,0,0,145,3,1,0,0,145,4,0,0,0,145,3,0,      31P     16
0;                                                                    31P     17
508,6,0,145,5,0,0,0,145,6,0,0,0,145,7,0,0,0,145,8,0,0,0,145,9,0,      33P     18
0,0,145,10,0,0;                                                       33P     19
508,4,0,145,11,1,0,0,145,12,0,0,0,145,7,1,0,0,145,13,0,0;             35P     20
508,4,0,145,14,1,0,0,145,15,0,0,0,145,8,1,0,0,145,12,1,0;             37P     21
508,4,0,145,16,1,0,0,145,17,0,0,0,145,9,1,0,0,145,15,1,0;             39P     22
508,1,0,145,4,1,0;                                                    41P     23
508,4,0,145,18,1,0,0,145,19,0,0,0,145,10,1,0,0,145,17,1,0;            43P     24
508,4,0,145,20,1,0,0,145,21,0,0,0,145,5,1,0,0,145,19,1,0;             45P     25
508,4,0,145,22,1,0,0,145,13,1,0,0,145,6,1,0,0,145,21,1,0;             47P     26
508,2,0,145,1,1,0,0,145,2,1,0;                                        49P     27
508,6,0,145,11,0,0,0,145,22,0,0,0,145,20,0,0,0,145,18,0,0,0,145,      51P     28
16,0,0,0,145,14,0,0;                                                  51P     29
126,4,2,0,0,0,0,0.,0.,0.,1.5707963267949,1.5707963267949,             53P     30
3.14159265358979,3.14159265358979,3.14159265358979,1.,                53P     31
0.707106781186548,1.,0.707106781186548,1.,3.3235,                     53P     32
5.00855767116858D-15,0.,3.3235,5.00855767116858D-15,-3.3235,          53P     33
2.0350568184831D-16,4.44089209850063D-15,-3.3235,-3.3235,             53P     34
3.87322652583267D-15,-3.3235,-3.3235,3.87322652583267D-15,            53P     35
-4.07011363696623D-16,0.,3.14159265358979,0.,0.,0.;                   53P     36
126,4,2,0,0,0,0,3.14159265358979,3.14159265358979,                    55P     37
3.14159265358979,4.71238898038469,4.71238898038469,                   55P     38
6.28318530717959,6.28318530717959,6.28318530717959,1.,                55P     39
0.707106781186548,1.,0.707106781186548,1.,-3.3235,                    55P     40
3.87322652583267D-15,-4.07011363696623D-16,-3.3235,                   55P     41
3.87322652583267D-15,3.3235,-6.10517045544935D-16,                    55P     42
4.44089209850063D-15,3.3235,3.3235,5.00855767116858D-15,3.3235,       55P     43
3.3235,5.00855767116858D-15,8.14022727393246D-16,                     55P     44
3.14159265358979,6.28318530717959,0.,0.,0.;                           55P     45
126,1,1,0,0,1,0,-8.66848821476632,-8.66848821476632,                  57P     46
-6.86316250391932,-6.86316250391932,1.,1.,-3.3235,                    57P     47
4.44089209850063D-15,0.,-3.3235,6.,0.,-8.66848821476632,              57P     48
-6.86316250391932,0.,0.,0.;                                           57P     49
126,8,2,0,1,0,0,-3.14159265358979,-3.14159265358979,                  59P     50
-3.14159265358979,-1.5707963267949,-1.5707963267949,0.,0.,            59P     51
1.5707963267949,1.5707963267949,3.14159265358979,                     59P     52
3.14159265358979,3.14159265358979,1.,0.707106781186548,1.,            59P     53
0.707106781186548,1.,0.707106781186548,1.,0.707106781186548,1.,       59P     54
-3.3235,6.,-4.07011363696623D-16,-3.3235,6.,-3.3235,                  59P     55
-8.21315571651833D-16,6.,-3.3235,3.3235,6.,-3.3235,3.3235,6.,0.,      59P     56
3.3235,6.,3.3235,-8.21315571651833D-16,6.,3.3235,-3.3235,6.,          59P     57
3.3235,-3.3235,6.,4.07011363696623D-16,-3.14159265358979,             59P     58
3.14159265358979,0.,0.,0.;                                            59P     59
126,1,1,0,0,1,0,0.,0.,0.35,0.35,1.,1.,6.5,2.22044604925031D-15,       61P     60
-12.5,6.5,3.5,-12.5,0.,0.35,0.,0.,0.;                                 61P     61
126,1,1,0,0,1,0,0.,0.,1.3,1.3,1.,1.,-6.5,0.,-12.5,6.5,                63P     62
2.22044604925031D-15,-12.5,0.,1.3,0.,0.,0.;                           63P     63
126,1,1,0,0,1,0,0.,0.,0.35,0.35,1.,1.,-6.5,3.5,-12.5,-6.5,0.,         65P     64
-12.5,0.,0.35,0.,0.,0.;                                               65P     65
126,1,1,0,0,1,0,0.,0.,0.353553390593274,0.353553390593274,1.,1.,      67P     66
-4.,6.,-12.5,-6.5,3.5,-12.5,0.,0.353553390593274,0.,0.,0.;            67P     67
126,1,1,0,0,1,0,0.,0.,0.8,0.8,1.,1.,4.,6.,-12.5,-4.,6.,-12.5,0.,      69P     68
0.8,0.,0.,0.;                                                         69P     69
126,1,1,0,0,1,0,0.,0.,0.353553390593274,0.353553390593274,1.,1.,      71P     70
6.5,3.5,-12.5,4.,6.,-12.5,0.,0.353553390593274,0.,0.,0.;              71P     71
126,1,1,0,0,1,0,-0.35,-0.35,0.,0.,1.,1.,-6.5,0.,12.5,-6.5,3.5,        73P     72
12.5,-0.35,0.,0.,0.,0.;                                               73P     73
126,1,1,0,0,1,0,-1.25,-1.25,1.25,1.25,1.,1.,-6.5,3.5,-12.5,-6.5,      75P     74
3.5,12.5,-1.25,1.25,0.,0.,0.;                                         75P     75
126,1,1,0,0,1,0,-1.25,-1.25,1.25,1.25,1.,1.,-6.5,0.,12.5,-6.5,        77P     76
0.,-12.5,-1.25,1.25,0.,0.,0.;                                         77P     77
126,1,1,0,0,1,0,-0.353553390593274,-0.353553390593274,0.,0.,1.,       79P     78
1.,-6.5,3.5,12.5,-4.,6.,12.5,-0.353553390593274,0.,0.,0.,0.;          79P     79
126,1,1,0,0,1,0,-1.25,-1.25,1.25,1.25,1.,1.,-4.,6.,-12.5,-4.,6.,      81P     80
12.5,-1.25,1.25,0.,0.,0.;                                             81P     81
126,1,1,0,0,1,0,-0.8,-0.8,0.,0.,1.,1.,-4.,6.,12.5,4.,6.,12.5,         83P     82
-0.8,0.,0.,0.,0.;                                                     83P     83
126,1,1,0,0,1,0,-1.25,-1.25,1.25,1.25,1.,1.,4.,6.,-12.5,4.,6.,        85P     84
12.5,-1.25,1.25,0.,0.,0.;                                             85P     85
126,1,1,0,0,1,0,-0.353553390593274,-0.353553390593274,0.,0.,1.,       87P     86
1.,4.,6.,12.5,6.5,3.5,12.5,-0.353553390593274,0.,0.,0.,0.;            87P     87
126,1,1,0,0,1,0,-1.25,-1.25,1.25,1.25,1.,1.,6.5,3.5,-12.5,6.5,        89P     88
3.5,12.5,-1.25,1.25,0.,0.,0.;                                         89P     89
126,1,1,0,0,1,0,-0.35,-0.35,0.,0.,1.,1.,6.5,3.5,12.5,6.5,             91P     90
2.22044604925031D-15,12.5,-0.35,0.,0.,0.,0.;                          91P     91
126,1,1,0,0,1,0,-1.25,-1.25,1.25,1.25,1.,1.,6.5,                      93P     92
2.22044604925031D-15,-12.5,6.5,2.22044604925031D-15,12.5,-1.25,       93P     93
1.25,0.,0.,0.;                                                        93P     94
126,1,1,0,0,1,0,-1.3,-1.3,0.,0.,1.,1.,6.5,2.22044604925031D-15,       95P     95
12.5,-6.5,0.,12.5,-1.3,0.,0.,0.,0.;                                   95P     96
126,1,1,0,0,1,0,0.,0.,1.2,1.2,1.,1.,6.5,2.22044604925031D-15,         97P     97
-12.5,6.5,12.,-12.5,0.,1.2,0.,0.,0.;                                  97P     98
126,2,2,0,0,0,0,0.,0.,0.,1.5707963267949,1.5707963267949,             99P     99
1.5707963267949,1.,0.707106781186549,1.,6.5,12.,-12.5,6.5,16.,        99P    100
-12.5,6.5,16.,-8.5,0.,1.5707963267949,0.,0.,0.;                       99P    101
126,1,1,0,0,1,0,0.,0.,0.1,0.1,1.,1.,6.5,16.,-8.5,6.5,16.,-7.5,       101P    102
0.,0.1,0.,0.,0.;                                                     101P    103
126,2,2,0,0,0,0,0.,0.,0.,1.5707963267949,1.5707963267949,            103P    104
1.5707963267949,1.,0.707106781186548,1.,6.5,16.,-7.5,6.5,16.,        103P    105
-3.5,6.5,12.,-3.5,0.,1.5707963267949,0.,0.,0.;                       103P    106
126,1,1,0,0,1,0,0.,0.,1.2,1.2,1.,1.,6.5,12.,-3.5,6.5,                105P    107
2.22044604925031D-15,-3.5,0.,1.2,0.,0.,0.;                           105P    108
126,1,1,0,0,1,0,0.,0.,0.9,0.9,1.,1.,6.5,2.22044604925031D-15,        107P    109
-3.5,6.5,2.22044604925031D-15,-12.5,0.,0.9,0.,0.,0.;                 107P    110
126,1,1,0,0,1,0,0.,0.,1.2,1.2,1.,1.,6.5,2.22044604925031D-15,        109P    111
12.5,6.5,12.,12.5,0.,1.2,0.,0.,0.;                                   109P    112
126,1,1,0,0,1,0,0.,0.,0.9,0.9,1.,1.,6.5,2.22044604925031D-15,        111P    113
3.5,6.5,2.22044604925031D-15,12.5,0.,0.9,0.,0.,0.;                   111P    114
126,1,1,0,0,1,0,0.,0.,1.2,1.2,1.,1.,6.5,12.,3.5,6.5,                 113P    115
2.22044604925031D-15,3.5,0.,1.2,0.,0.,0.;                            113P    116
126,2,2,0,0,0,0,1.5707963267949,1.5707963267949,1.5707963267949,     115P    117
3.14159265358979,3.14159265358979,3.14159265358979,1.,               115P    118
0.707106781186549,1.,6.5,16.,7.5,6.5,16.,3.5,6.5,12.,3.5,            115P    119
1.5707963267949,3.14159265358979,0.,0.,0.;                           115P    120
126,1,1,0,0,1,0,0.,0.,0.1,0.1,1.,1.,6.5,16.,8.5,6.5,16.,7.5,0.,      117P    121
0.1,0.,0.,0.;                                                        117P    122
126,2,2,0,0,0,0,1.5707963267949,1.5707963267949,1.5707963267949,     119P    123
3.14159265358979,3.14159265358979,3.14159265358979,1.,               119P    124
0.707106781186547,1.,6.5,12.,12.5,6.5,16.,12.5,6.5,16.,8.5,          119P    125
1.5707963267949,3.14159265358979,0.,0.,0.;                           119P    126
128,1,8,1,2,0,1,0,0,1,-8.66848821476632,-8.66848821476632,           121P    127
-6.86316250391932,-6.86316250391932,-3.14159265358979,               121P    128
-3.14159265358979,-3.14159265358979,-1.5707963267949,                121P    129
-1.5707963267949,0.,0.,1.5707963267949,1.5707963267949,              121P    130
3.14159265358979,3.14159265358979,3.14159265358979,1.,1.,            121P    131
0.707106781186548,0.707106781186548,1.,1.,0.707106781186548,         121P    132
0.707106781186548,1.,1.,0.707106781186548,0.707106781186548,1.,      121P    133
1.,0.707106781186548,0.707106781186548,1.,1.,-3.3235,6.,0.,          121P    134
-3.3235,4.44089209850063D-15,0.,-3.3235,6.,-3.3235,-3.3235,          121P    135
4.44089209850063D-15,-3.3235,-1.02482125350014D-15,6.,-3.3235,       121P    136
-9.86076131526265D-31,4.44089209850063D-15,-3.3235,3.3235,6.,        121P    137
-3.3235,3.3235,4.44089209850063D-15,-3.3235,3.3235,6.,0.,3.3235,     121P    138
4.44089209850063D-15,0.,3.3235,6.,3.3235,3.3235,                     121P    139
4.44089209850063D-15,3.3235,-1.02482125350014D-15,6.,3.3235,         121P    140
-9.86076131526265D-31,4.44089209850063D-15,3.3235,-3.3235,6.,        121P    141
3.3235,-3.3235,4.44089209850063D-15,3.3235,-3.3235,6.,0.,            121P    142
-3.3235,4.44089209850063D-15,0.,-8.66848821476632,                   121P    143
-6.86316250391932,-3.14159265358979,3.14159265358979;                121P    144
128,1,1,1,1,0,0,1,0,0,-0.651,-0.651,0.651,0.651,                     123P    145
-0.2685640576721,-0.2685640576721,0.3334359423279,                   123P    146
0.3334359423279,1.,1.,1.,1.,6.51,-0.01,-12.5,-6.51,-0.01,-12.5,      123P    147
6.51,6.01,-12.5,-6.51,6.01,-12.5,-0.651,0.651,-0.2685640576721,      123P    148
0.3334359423279;                                                     123P    149
128,1,1,1,1,0,0,1,0,0,-1.251,-1.251,1.251,1.251,-0.001,-0.001,       125P    150
0.351,0.351,1.,1.,1.,1.,-6.5,-0.01,-12.51,-6.5,-0.01,12.51,-6.5,     125P    151
3.51,-12.51,-6.5,3.51,12.51,-1.251,1.251,-0.001,0.351;               125P    152
128,1,1,1,1,0,0,1,0,0,-1.251,-1.251,1.251,1.251,                     127P    153
-0.00100000000000012,-0.00100000000000012,0.354553390593274,         127P    154
0.354553390593274,1.,1.,1.,1.,-6.50707106781187,                     127P    155
3.49292893218813,-12.51,-6.50707106781187,3.49292893218813,          127P    156
12.51,-3.99292893218814,6.00707106781187,-12.51,                     127P    157
-3.99292893218814,6.00707106781186,12.51,-1.251,1.251,               127P    158
-0.00100000000000012,0.354553390593274;                              127P    159
128,1,1,1,1,0,0,1,0,0,-1.251,-1.251,1.251,1.251,-0.001,-0.001,       129P    160
0.801,0.801,1.,1.,1.,1.,-4.01,6.,-12.51,-4.01,6.,12.51,4.01,6.,      129P    161
-12.51,4.01,6.,12.51,-1.251,1.251,-0.001,0.801;                      129P    162
128,1,1,1,1,0,0,1,0,0,-1.251,-1.251,1.251,1.251,                     131P    163
-0.354553390593274,-0.354553390593274,0.001,0.001,1.,1.,1.,1.,       131P    164
6.50707106781187,3.49292893218814,12.51,6.50707106781187,            131P    165
3.49292893218814,-12.51,3.99292893218813,6.00707106781187,12.51,     131P    166
3.99292893218813,6.00707106781187,-12.51,-1.251,1.251,               131P    167
-0.354553390593274,0.001;                                            131P    168
128,1,1,1,1,0,0,1,0,0,-1.251,-1.251,1.251,1.251,-0.351,-0.351,       133P    169
0.001,0.001,1.,1.,1.,1.,6.5,-0.00999999999999779,12.51,6.5,          133P    170
-0.00999999999999779,-12.51,6.5,3.51,12.51,6.5,3.51,-12.51,          133P    171
-1.251,1.251,-0.351,0.001;                                           133P    172
128,1,1,1,1,0,0,1,0,0,-1.251,-1.251,1.251,1.251,-1.301,-1.301,       135P    173
0.001,0.001,1.,1.,1.,1.,-6.51,-1.70803542249994D-18,12.51,-6.51,     135P    174
-1.70803542249994D-18,-12.51,6.51,2.22215408467281D-15,12.51,        135P    175
6.51,2.22215408467281D-15,-12.51,-1.251,1.251,-1.301,0.001;          135P    176
128,1,1,1,1,0,0,1,0,0,-0.651,-0.651,0.651,0.651,                     137P    177
-0.2685640576721,-0.2685640576721,0.3334359423279,                   137P    178
0.3334359423279,1.,1.,1.,1.,-6.51,-0.01,12.5,6.51,-0.01,12.5,        137P    179
-6.51,6.01,12.5,6.51,6.01,12.5,-0.651,0.651,-0.2685640576721,        137P    180
0.3334359423279;                                                     137P    181
128,1,1,1,1,0,0,1,0,0,-0.451,-0.451,0.451,0.451,                     139P    182
-0.735676776845301,-0.735676776845301,0.8663232231547,               139P    183
0.8663232231547,1.,1.,1.,1.,6.5,-0.00999999999999779,-3.49,6.5,      139P    184
-0.00999999999999779,-12.51,6.5,16.01,-3.49,6.5,16.01,-12.51,        139P    185
-0.451,0.451,-0.735676776845301,0.8663232231547;                     139P    186
128,1,1,1,1,0,0,1,0,0,-0.451,-0.451,0.451,0.451,                     141P    187
-0.735676776845301,-0.735676776845301,0.8663232231547,               141P    188
0.8663232231547,1.,1.,1.,1.,6.5,-0.00999999999999779,12.51,6.5,      141P    189
-0.00999999999999779,3.49,6.5,16.01,12.51,6.5,16.01,3.49,-0.451,     141P    190
0.451,-0.735676776845301,0.8663232231547;                            141P    191
502,15,3.3235,1.67788859729311D-15,0.,-3.3235,                       143P    192
4.44089209850063D-15,0.,-3.3235,6.,-4.07011363696623D-16,6.5,        143P    193
2.22044604925031D-15,-12.5,6.5,3.5,-12.5,-6.5,0.,-12.5,-6.5,3.5,     143P    194
-12.5,-4.,6.,-12.5,4.,6.,-12.5,-6.5,0.,12.5,-6.5,3.5,12.5,-4.,       143P    195
6.,12.5,4.,6.,12.5,6.5,3.5,12.5,6.5,2.22044604925031D-15,12.5;       143P    196
504,22,53,143,1,143,2,55,143,2,143,1,57,143,2,143,3,59,143,3,        145P    197
143,3,61,143,4,143,5,63,143,6,143,4,65,143,7,143,6,67,143,8,143,     145P    198
7,69,143,9,143,8,71,143,5,143,9,73,143,10,143,11,75,143,7,143,       145P    199
11,77,143,10,143,6,79,143,11,143,12,81,143,8,143,12,83,143,12,       145P    200
143,13,85,143,9,143,13,87,143,13,143,14,89,143,5,143,14,91,143,      145P    201
14,143,15,93,143,4,143,15,95,143,15,143,10;                          145P    202
406,1,8HTěleso1;                                                    147P    203
406,1,4HSrf1;                                                        149P    204
406,2,0,20HHraniční záplata1;                                     151P    205
314,63.921568627451,63.921568627451,68.6274509803922,;               153P    206
S      1G      3D    154P    206                                        T      1
