                                                                        S      1
,,,14H210813.stp.ipt,22HAutodesk Inventor 2014,7Hunknown,32,38,7,99,15,,G      1
1.,2,2HMM,1,0.08,15H20151020.095751,0.01,10000.,5Hzeman,,11,0,;         G      2
     406       1                       1                        00000000D      1
     406                       1       3                               0D      2
     186       2                                                00000000D      3
     186            -139       1       0                               0D      4
     514       3                                                00010000D      5
     514                       1       1                               0D      6
     190       4                                                00010000D      7
     190       0    -139       1       1                               0D      8
     190       5                                                00010000D      9
     190       0    -139       1       1                               0D     10
     190       6                                                00010000D     11
     190       0    -139       1       1                               0D     12
     190       7                                                00010000D     13
     190       0    -139       1       1                               0D     14
     190       8                                                00010000D     15
     190       0    -139       1       1                               0D     16
     190       9                                                00010000D     17
     190       0    -139       1       1                               0D     18
     123      10                                                00010200D     19
     123       0               1       0                               0D     20
     123      11                                                00010200D     21
     123       0               1       0                               0D     22
     123      12                                                00010200D     23
     123       0               1       0                               0D     24
     123      13                                                00010200D     25
     123       0               1       0                               0D     26
     123      14                                                00010200D     27
     123       0               1       0                               0D     28
     123      15                                                00010200D     29
     123       0               1       0                               0D     30
     123      16                                                00010200D     31
     123       0               1       0                               0D     32
     123      17                                                00010200D     33
     123       0               1       0                               0D     34
     123      18                                                00010200D     35
     123       0               1       0                               0D     36
     123      19                                                00010200D     37
     123       0               1       0                               0D     38
     123      20                                                00010200D     39
     123       0               1       0                               0D     40
     123      21                                                00010200D     41
     123       0               1       0                               0D     42
     116      22                                                00010000D     43
     116       0               1       0                               0D     44
     116      23                                                00010000D     45
     116       0               1       0                               0D     46
     116      24                                                00010000D     47
     116       0               1       0                               0D     48
     116      25                                                00010000D     49
     116       0               1       0                               0D     50
     116      26                                                00010000D     51
     116       0               1       0                               0D     52
     116      27                                                00010000D     53
     116       0               2       0                               0D     54
     510      29                                                00010000D     55
     510            -139       1       1                               0D     56
     510      30                                                00010000D     57
     510            -139       1       1                               0D     58
     510      31                                                00010000D     59
     510            -139       1       1                               0D     60
     510      32                                                00010000D     61
     510            -139       1       1                               0D     62
     510      33                                                00010000D     63
     510            -139       1       1                               0D     64
     510      34                                                00010000D     65
     510            -139       1       1                               0D     66
     510      35                                                00010000D     67
     510            -139       1       1                               0D     68
     508      36                                                00010000D     69
     508                       2       1                               0D     70
     508      38                                                00010000D     71
     508                       1       1                               0D     72
     508      39                                                00010000D     73
     508                       1       1                               0D     74
     508      40                                                00010000D     75
     508                       1       1                               0D     76
     508      41                                                00010000D     77
     508                       1       1                               0D     78
     508      42                                                00010000D     79
     508                       1       1                               0D     80
     508      43                                                00010000D     81
     508                       1       1                               0D     82
     508      44                                                00010000D     83
     508                       1       1                               0D     84
     508      45                                                00010000D     85
     508                       1       1                               0D     86
     124      46                                                00000000D     87
     124                       2       0                               0D     88
     124      48                                                00000000D     89
     124                       2       0                               0D     90
     124      50                                                00000000D     91
     124                       2       0                               0D     92
     100      52                                      87        00010000D     93
     100       0               2       0                               0D     94
     100      54                                      89        00010000D     95
     100       0               1       0                               0D     96
     100      55                                      91        00010000D     97
     100       0               1       0                               0D     98
     120      56                                                00010000D     99
     120       0    -139       1       0                               0D    100
     110      57                                                00010000D    101
     110       0               2       0                               0D    102
     110      59                                                00010000D    103
     110       0               2       0                               0D    104
     110      61                                                00010000D    105
     110       0               2       0                               0D    106
     110      63                                                00010000D    107
     110       0               1       0                               0D    108
     110      64                                                00010000D    109
     110       0               1       0                               0D    110
     110      65                                                00010000D    111
     110       0               2       0                               0D    112
     110      67                                                00010000D    113
     110       0               1       0                               0D    114
     110      68                                                00010000D    115
     110       0               1       0                               0D    116
     110      69                                                00010000D    117
     110       0               1       0                               0D    118
     110      70                                                00010000D    119
     110       0               2       0                               0D    120
     110      72                                                00010000D    121
     110       0               1       0                               0D    122
     110      73                                                00010000D    123
     110       0               1       0                               0D    124
     110      74                                                00010000D    125
     110       0               2       0                               0D    126
     110      76                                                00010000D    127
     110       0               1       0                               0D    128
     110      77                                                00010000D    129
     110       0               1       0                               0D    130
     502      78                                                00010000D    131
     502                       6       1                               0D    132
     504      84                                                00010001D    133
     504                       5       1                               0D    134
     406      89                                                00000000D    135
     406                       1      15                               0D    136
     314      90                                                00000200D    137
     314                       1       0                               0D    138
     314      91                                                00000200D    139
     314                       1       0                               0D    140
406,2,0,10H210813.stp;                                                 1P      1
186,5,1,0,0,1,135;                                                     3P      2
514,7,55,1,57,1,59,1,61,1,63,1,65,1,67,1;                              5P      3
190,43,19,21;                                                          7P      4
190,45,23,25;                                                          9P      5
190,47,27,29;                                                         11P      6
190,49,31,33;                                                         13P      7
190,51,35,37;                                                         15P      8
190,53,39,41;                                                         17P      9
123,2.22044604925031D-016,-1.70803542250024D-016,-1.;                 19P     10
123,-1.,0.,0.;                                                        21P     11
123,3.79260050587025D-032,-1.,-1.70803542250024D-016;                 23P     12
123,-1.,0.,0.;                                                        25P     13
123,-2.22044604925031D-016,8.5401771125012D-017,1.;                   27P     14
123,1.,0.,0.;                                                         29P     15
123,-3.79260050587025D-032,1.,1.70803542250024D-016;                  31P     16
123,1.,0.,0.;                                                         33P     17
123,1.,0.,2.22044604925031D-016;                                      35P     18
123,2.22044604925031D-016,0.,-1.;                                     37P     19
123,-1.,-0.,-2.22044604925031D-016;                                   39P     20
123,2.22044604925031D-016,0.,-1.;                                     41P     21
116,1.4432899320127D-015,6.5,-6.5,0;                                  43P     22
116,1.4432899320127D-015,-6.5,-6.5,0;                                 45P     23
116,-1.4432899320127D-015,-6.5,6.5,0;                                 47P     24
116,-1.4432899320127D-015,6.5,6.5,0;                                  49P     25
116,1.,4.03717463500057D-016,1.33226762955019D-015,0;                 51P     26
116,-2.46519032881567D-031,1.51394048812521D-016,                     53P     27
1.11022302462516D-015,0;                                              53P     28
510,99,1,1,69;                                                        55P     29
510,7,1,1,71;                                                         57P     30
510,9,1,1,73;                                                         59P     31
510,11,1,1,75;                                                        61P     32
510,13,1,1,77;                                                        63P     33
510,15,2,1,79,81;                                                     65P     34
510,17,2,1,83,85;                                                     67P     35
508,5,0,133,1,0,0,0,133,2,1,0,0,133,3,0,0,0,133,4,0,0,0,133,2,0,      69P     36
0;                                                                    69P     37
508,4,0,133,5,1,0,0,133,6,0,0,0,133,7,0,0,0,133,8,1,0;                71P     38
508,4,0,133,9,1,0,0,133,10,0,0,0,133,11,0,0,0,133,6,1,0;              73P     39
508,4,0,133,12,1,0,0,133,13,0,0,0,133,14,0,0,0,133,10,1,0;            75P     40
508,4,0,133,15,1,0,0,133,8,0,0,0,133,16,0,0,0,133,13,1,0;             77P     41
508,4,0,133,5,0,0,0,133,15,0,0,0,133,12,0,0,0,133,9,0,0;              79P     42
508,2,0,133,3,1,0,0,133,4,1,0;                                        81P     43
508,4,0,133,16,1,0,0,133,7,1,0,0,133,11,1,0,0,133,14,1,0;             83P     44
508,1,0,133,1,1,0;                                                    85P     45
124,2.22044604925031D-016,-0.,1.,0.,0.,1.,-0.,0.,-1.,-0.,             87P     46
2.22044604925031D-016,0.;                                             87P     47
124,2.22044604925031D-016,-0.,-1.,1.,0.,-1.,-0.,0.,-1.,-0.,           89P     48
-2.22044604925031D-016,2.22044604925031D-016;                         89P     49
124,2.22044604925031D-016,-0.,-1.,1.,0.,-1.,-0.,0.,-1.,-0.,           91P     50
-2.22044604925031D-016,2.22044604925031D-016;                         91P     51
100,0.,0.,0.,-4.25,-5.20474889637625D-016,-4.25,                      93P     52
-5.20474889637625D-016;                                               93P     53
100,0.,0.,0.,4.25,0.,-4.25,5.20474889637625D-016;                     95P     54
100,0.,0.,0.,-4.25,5.20474889637625D-016,4.25,0.;                     97P     55
120,101,103,0.,6.28318530717959;                                      99P     56
110,-17.411952639522,0.,-3.86623014481602D-015,-16.411952639522,     101P     57
0.,-3.64418553989099D-015;                                           101P     58
110,-3.5527136788005D-015,-5.20474889637625D-016,4.25,               103P     59
0.999999999999996,-5.20474889637625D-016,4.25;                       103P     60
110,-9.43689570931383D-016,-5.20474889637625D-016,4.25,              105P     61
0.999999999999999,-5.20474889637625D-016,4.25;                       105P     62
110,1.,6.5,-6.5,1.,-6.5,-6.5;                                        107P     63
110,1.4432899320127D-015,-6.5,-6.5,1.,-6.5,-6.5;                     109P     64
110,1.4432899320127D-015,6.5,-6.5,1.4432899320127D-015,-6.5,         111P     65
-6.5;                                                                111P     66
110,1.4432899320127D-015,6.5,-6.5,1.,6.5,-6.5;                       113P     67
110,1.,-6.5,-6.5,0.999999999999999,-6.5,6.5;                         115P     68
110,-1.4432899320127D-015,-6.5,6.5,0.999999999999999,-6.5,6.5;       117P     69
110,1.4432899320127D-015,-6.5,-6.5,-1.4432899320127D-015,-6.5,       119P     70
6.5;                                                                 119P     71
110,0.999999999999999,-6.5,6.5,0.999999999999999,6.5,6.5;            121P     72
110,-1.4432899320127D-015,6.5,6.5,0.999999999999999,6.5,6.5;         123P     73
110,-1.4432899320127D-015,-6.5,6.5,-1.4432899320127D-015,6.5,        125P     74
6.5;                                                                 125P     75
110,0.999999999999999,6.5,6.5,1.,6.5,-6.5;                           127P     76
110,-1.4432899320127D-015,6.5,6.5,1.4432899320127D-015,6.5,-6.5;     129P     77
502,11,-9.43689570931383D-016,-5.20474889637625D-016,4.25,           131P     78
0.999999999999999,-5.20474889637625D-016,4.25,1.,0.,-4.25,1.,        131P     79
6.5,-6.5,1.,-6.5,-6.5,1.4432899320127D-015,-6.5,-6.5,                131P     80
1.4432899320127D-015,6.5,-6.5,0.999999999999999,-6.5,6.5,            131P     81
-1.4432899320127D-015,-6.5,6.5,0.999999999999999,6.5,6.5,            131P     82
-1.4432899320127D-015,6.5,6.5;                                       131P     83
504,16,93,131,1,131,1,105,131,1,131,2,95,131,3,131,2,97,131,2,       133P     84
131,3,107,131,4,131,5,109,131,6,131,5,111,131,7,131,6,113,131,7,     133P     85
131,4,115,131,5,131,8,117,131,9,131,8,119,131,6,131,9,121,131,8,     133P     86
131,10,123,131,11,131,10,125,131,9,131,11,127,131,10,131,4,129,      133P     87
131,11,131,7;                                                        133P     88
406,1,8HTěleso1;                                                    135P     89
314,74.9019607843137,74.9019607843137,74.9019607843137,;             137P     90
314,63.921568627451,63.921568627451,66.2745098039216,;               139P     91
S      1G      2D    140P     91                                        T      1
