                                                                        S      1
,,,9H210402ESD,22HAutodesk Inventor 2021,7Hunknown,32,38,7,99,15,,1.,2, G      1
2HMM,1,0.08,15H20230123.085559,0.01,10000.,13HMrówczyńska,,11,0,15H202G      2
30120.071209;                                                           G      3
     143       1                       1                        00000000D      1
     143       0    -129       1       0                               0D      2
     141       2                                                00010000D      3
     141       0               1       0                               0D      4
     186       3                                                00000000D      5
     186            -127       1       0                               0D      6
     514       4                                                00010000D      7
     514                       1       1                               0D      8
     510       5                                                00010000D      9
     510            -127       1       1                               0D     10
     510       6                                                00010000D     11
     510            -127       1       1                               0D     12
     510       7                                                00010000D     13
     510            -127       1       1                               0D     14
     510       8                                                00010000D     15
     510            -127       1       1                               0D     16
     510       9                                                00010000D     17
     510            -127       1       1                               0D     18
     510      10                                                00010000D     19
     510            -127       1       1                               0D     20
     510      11                                                00010000D     21
     510            -127       1       1                               0D     22
     510      12                                                00010000D     23
     510            -127       1       1                               0D     24
     508      13                                                00010000D     25
     508                       2       1                               0D     26
     508      15                                                00010000D     27
     508                       2       1                               0D     28
     508      17                                                00010000D     29
     508                       2       1                               0D     30
     508      19                                                00010000D     31
     508                       1       1                               0D     32
     508      20                                                00010000D     33
     508                       1       1                               0D     34
     508      21                                                00010000D     35
     508                       1       1                               0D     36
     508      22                                                00010000D     37
     508                       1       1                               0D     38
     508      23                                                00010000D     39
     508                       1       1                               0D     40
     508      24                                                00010000D     41
     508                       1       1                               0D     42
     508      25                                                00010000D     43
     508                       1       1                               0D     44
     126      26                                                00010000D     45
     126       0              10       0                               0D     46
     126      36                                                00010000D     47
     126       0               3       0                               0D     48
     126      39                                                00010000D     49
     126       0               5       0                               0D     50
     126      44                                                00010000D     51
     126       0               7       0                               0D     52
     126      51                                                00010000D     53
     126       0               6       0                               0D     54
     126      57                                                00010000D     55
     126       0               6       0                               0D     56
     126      63                                                00010000D     57
     126       0               6       0                               0D     58
     126      69                                                00010000D     59
     126       0               6       0                               0D     60
     126      75                                                00010000D     61
     126       0               6       0                               0D     62
     126      81                                                00010000D     63
     126       0               4       0                               0D     64
     126      85                                                00010000D     65
     126       0               5       0                               0D     66
     126      90                                                00010000D     67
     126       0               7       0                               0D     68
     126      97                                                00010000D     69
     126       0               3       0                               0D     70
     126     100                                                00010000D     71
     126       0               2       0                               0D     72
     126     102                                                00010000D     73
     126       0               3       0                               0D     74
     126     105                                                00010000D     75
     126       0               3       0                               0D     76
     126     108                                                00010000D     77
     126       0               2       0                               0D     78
     126     110                                                00010000D     79
     126       0               3       0                               0D     80
     126     113                                                00010000D     81
     126       0               2       0                               0D     82
     126     115                                                00010000D     83
     126       0               2       0                               0D     84
     126     117                                                00010000D     85
     126       0               2       0                               0D     86
     126     119                                                00010000D     87
     126       0               2       0                               0D     88
     126     121                                                00010000D     89
     126       0               4       0                               0D     90
     126     125                                                00010000D     91
     126       0               2       0                               0D     92
     126     127                                                00010000D     93
     126       0               4       0                               0D     94
     126     131                                                00010000D     95
     126       0               2       0                               0D     96
     128     133                                                00010000D     97
     128       0    -127      13       0                               0D     98
     128     146                                                00010000D     99
     128       0    -127      18       0                               0D    100
     128     164                                                00010000D    101
     128       0    -127       5       0                               0D    102
     128     169                                                00010000D    103
     128       0    -127       5       0                               0D    104
     128     174                                                00010000D    105
     128       0    -127       5       0                               0D    106
     128     179                                                00010000D    107
     128       0    -127       5       0                               0D    108
     128     184                                                00010000D    109
     128       0    -127       3       0                               0D    110
     128     187                                                00010000D    111
     128       0    -127       3       0                               0D    112
     128     190                                                00010000D    113
     128       0               5       0                               0D    114
     502     195                                                00010000D    115
     502                       5       1                               0D    116
     504     200                                                00010001D    117
     504                       6       1                               0D    118
     406     206                                                00000000D    119
     406                       1      15                               0D    120
     406     207                                                00000000D    121
     406                       1      15                               0D    122
     406     208                       1                        00000000D    123
     406                       1       3                               0D    124
     314     209                                                00000200D    125
     314                       1       0                               0D    126
     314     210                                                00000200D    127
     314                       1       0                               0D    128
     314     211                                                00000200D    129
     314                       1       0                               0D    130
143,0,113,1,3,0,1,121;                                                 1P      1
141,0,1,113,6,85,1,0,87,1,0,89,1,0,91,1,0,93,1,0,95,1,0;               3P      2
186,7,1,0,0,1,119;                                                     5P      3
514,8,9,1,11,1,13,1,15,1,17,1,19,1,21,1,23,1;                          7P      4
510,97,1,1,25;                                                         9P      5
510,99,1,1,27;                                                        11P      6
510,101,1,1,29;                                                       13P      7
510,103,1,1,31;                                                       15P      8
510,105,1,1,33;                                                       17P      9
510,107,1,1,35;                                                       19P     10
510,109,2,1,37,39;                                                    21P     11
510,111,2,1,41,43;                                                    23P     12
508,5,0,117,1,0,0,0,117,2,1,0,0,117,3,0,0,0,117,4,0,0,0,117,2,0,      25P     13
0;                                                                    25P     14
508,9,0,117,5,0,0,0,117,6,0,0,0,117,7,0,0,0,117,8,0,0,0,117,9,0,      27P     15
0,0,117,10,1,0,0,117,11,0,0,0,117,12,0,0,0,117,10,0,0;                27P     16
508,5,0,117,5,1,0,0,117,9,1,0,0,117,13,0,0,0,117,14,0,0,0,117,        29P     17
15,1,0;                                                               29P     18
508,4,0,117,8,1,0,0,117,16,0,0,0,117,17,0,0,0,117,13,1,0;             31P     19
508,4,0,117,7,1,0,0,117,18,0,0,0,117,19,0,0,0,117,16,1,0;             33P     20
508,4,0,117,6,1,0,0,117,15,0,0,0,117,20,0,0,0,117,18,1,0;             35P     21
508,2,0,117,11,1,0,0,117,12,1,0;                                      37P     22
508,2,0,117,3,1,0,0,117,4,1,0;                                        39P     23
508,4,0,117,17,1,0,0,117,19,1,0,0,117,20,1,0,0,117,14,1,0;            41P     24
508,1,0,117,1,1,0;                                                    43P     25
126,8,2,0,1,0,0,-3.14159265358979,-3.14159265358979,                  45P     26
-3.14159265358979,-1.5707963267949,-1.5707963267949,0.,0.,            45P     27
1.5707963267949,1.5707963267949,3.14159265358979,                     45P     28
3.14159265358979,3.14159265358979,1.,0.707106781186548,1.,            45P     29
0.707106781186548,1.,0.707106781186548,1.,0.707106781186548,1.,       45P     30
0.,-1.98515246141786D-16,1.621,0.,-1.621,1.621,0.,-1.621,             45P     31
-9.9257623070893D-17,0.,-1.621,-1.621,0.,0.,-1.621,0.,1.621,          45P     32
-1.621,0.,1.621,-9.9257623070893D-17,0.,1.621,1.621,0.,               45P     33
1.98515246141786D-16,1.621,-3.14159265358979,3.14159265358979,        45P     34
0.,0.,0.;                                                             45P     35
126,1,1,0,0,1,0,8.4135056133298,8.4135056133298,                      47P     36
12.1149244905661,12.1149244905661,1.,1.,0.,0.,1.621,6.,0.,1.621,      47P     37
8.4135056133298,12.1149244905661,0.,0.,0.;                            47P     38
126,4,2,0,0,0,0,0.,0.,0.,1.5707963267949,1.5707963267949,             49P     39
3.14159265358979,3.14159265358979,3.14159265358979,1.,                49P     40
0.707106781186548,1.,0.707106781186548,1.,6.,0.,-1.621,6.,            49P     41
-1.621,-1.621,6.,-1.621,-9.9257623070893D-17,6.,-1.621,1.621,6.,      49P     42
-1.98515246141786D-16,1.621,0.,3.14159265358979,0.,0.,0.;             49P     43
126,4,2,0,0,0,0,3.14159265358979,3.14159265358979,                    51P     44
3.14159265358979,4.71238898038469,4.71238898038469,                   51P     45
6.28318530717959,6.28318530717959,6.28318530717959,1.,                51P     46
0.707106781186548,1.,0.707106781186547,1.,6.,                         51P     47
-1.98515246141786D-16,1.621,6.,1.621,1.621,6.,1.621,                  51P     48
2.97772869212679D-16,6.,1.621,-1.621,6.,3.97030492283572D-16,         51P     49
-1.621,3.14159265358979,6.28318530717959,0.,0.,0.;                    51P     50
126,2,2,0,0,0,0,-2.12750240110574,-2.12750240110574,                  53P     51
-2.12750240110574,-1.224744871391,-1.224744871391,                    53P     52
-1.224744871391,1.21077810539828,1.46153846153862,                    53P     53
1.46153846153846,2.30761184457488,-6.5,-6.5,5.00000000000146,         53P     54
-6.5,-2.69238815542305,5.,-6.5,3.52770444435105D-12,                  53P     55
-2.12750240110574,-1.224744871391,0.,0.,0.;                           53P     56
126,2,2,0,0,0,0,0.0587433032615019,0.0587433032615019,                55P     57
0.0587433032615019,1.53342502954415,1.53342502954415,                 55P     58
1.53342502954415,1.03553390593274,1.46446609406627,                   55P     59
1.03553390593472,2.30761184457488,6.5,-6.5,6.90380592224986,          55P     60
-3.18922666053822D-11,-6.5,2.30761184457488,-6.5,-6.5,                55P     61
0.0587433032615019,1.53342502954415,0.,0.,0.;                         55P     62
126,2,2,0,0,0,0,0.0587433032615016,0.0587433032615016,                57P     63
0.0587433032615016,1.53342502954415,1.53342502954415,                 57P     64
1.53342502954415,1.03553390593274,1.46446609406627,                   57P     65
1.03553390593472,2.30761184457488,6.5,6.5,6.90380592224986,6.5,       57P     66
-3.18955972744561D-11,2.30761184457488,6.5,-6.5,                      57P     67
0.0587433032615016,1.53342502954415,0.,0.,0.;                         57P     68
126,2,2,0,0,0,0,0.0587433032615017,0.0587433032615017,                59P     69
0.0587433032615017,1.53342502954415,1.53342502954415,                 59P     70
1.53342502954415,1.03553390593274,1.46446609406627,                   59P     71
1.03553390593472,2.30761184457488,-6.5,6.5,6.90380592224986,          59P     72
3.18944870514315D-11,6.5,2.30761184457488,6.5,6.5,                    59P     73
0.0587433032615017,1.53342502954415,0.,0.,0.;                         59P     74
126,2,2,0,0,0,0,-1.224744871391,-1.224744871391,-1.224744871391,      61P     75
-0.321987341677438,-0.321987341677438,-0.321987341677438,             61P     76
1.46153846153846,1.4615384615383,1.21077810539828,5.,-6.5,            61P     77
3.52770444435105D-12,4.99999999999854,-6.5,2.69238815542718,          61P     78
2.30761184457488,-6.5,6.5,-1.224744871391,-0.321987341677438,0.,      61P     79
0.,0.;                                                                61P     80
126,1,1,0,0,1,0,-0.117851130197688,-0.117851130197688,                63P     81
0.117851130197758,0.117851130197758,1.,1.,5.0000000000003,            63P     82
-6.4999999999997,1.76385222217553D-12,6.,-5.5,0.,                     63P     83
-0.117851130197688,0.117851130197758,0.,0.,0.;                        63P     84
126,4,2,0,0,0,0,0.,0.,0.,1.5707963267949,1.5707963267949,             65P     85
3.14159265358979,3.14159265358979,3.14159265358979,1.,                65P     86
0.707106781186548,1.,0.707106781186548,1.,6.,5.5,0.,6.,5.5,5.5,       65P     87
6.,3.36777869765522D-16,5.5,6.,-5.5,5.5,6.,-5.5,                      65P     88
6.73555739531044D-16,0.,3.14159265358979,0.,0.,0.;                    65P     89
126,4,2,0,0,0,0,3.14159265358979,3.14159265358979,                    67P     90
3.14159265358979,4.71238898038469,4.71238898038469,                   67P     91
6.28318530717959,6.28318530717959,6.28318530717959,1.,                67P     92
0.707106781186548,1.,0.707106781186548,1.,6.,-5.5,                    67P     93
6.73555739531044D-16,6.,-5.5,-5.5,6.,-1.01033360929657D-15,-5.5,      67P     94
6.,5.5,-5.5,6.,5.5,-1.34711147906209D-15,3.14159265358979,            67P     95
6.28318530717959,0.,0.,0.;                                            67P     96
126,1,1,0,0,1,0,0.,0.,0.230761184457488,0.230761184457488,1.,1.,      69P     97
0.,-6.5,6.5,2.30761184457488,-6.5,6.5,0.,0.230761184457488,0.,        69P     98
0.,0.;                                                                69P     99
126,1,1,0,0,1,0,0.,0.,1.3,1.3,1.,1.,0.,-6.5,-6.5,0.,-6.5,6.5,0.,      71P    100
1.3,0.,0.,0.;                                                         71P    101
126,1,1,0,0,1,0,0.,0.,0.230761184457488,0.230761184457488,1.,1.,      73P    102
0.,-6.5,-6.5,2.30761184457488,-6.5,-6.5,0.,0.230761184457488,0.,      73P    103
0.,0.;                                                                73P    104
126,1,1,0,0,1,0,0.,0.,0.230761184457488,0.230761184457488,1.,1.,      75P    105
0.,6.5,6.5,2.30761184457488,6.5,6.5,0.,0.230761184457488,0.,0.,       75P    106
0.;                                                                   75P    107
126,1,1,0,0,1,0,0.,0.,1.3,1.3,1.,1.,0.,-6.5,6.5,0.,6.5,6.5,0.,        77P    108
1.3,0.,0.,0.;                                                         77P    109
126,1,1,0,0,1,0,0.,0.,0.230761184457488,0.230761184457488,1.,1.,      79P    110
0.,6.5,-6.5,2.30761184457488,6.5,-6.5,0.,0.230761184457488,0.,        79P    111
0.,0.;                                                                79P    112
126,1,1,0,0,1,0,0.,0.,1.3,1.3,1.,1.,0.,6.5,6.5,0.,6.5,-6.5,0.,        81P    113
1.3,0.,0.,0.;                                                         81P    114
126,1,1,0,0,1,0,0.,0.,1.3,1.3,1.,1.,0.,6.5,-6.5,0.,-6.5,-6.5,0.,      83P    115
1.3,0.,0.,0.;                                                         83P    116
126,1,1,0,0,1,0,0.0499999999999999,0.0499999999999999,1.25,1.25,      85P    117
1.,1.,0.,6.,-6.5,0.,-6.,-6.5,0.0499999999999999,1.25,0.,0.,0.;        85P    118
126,1,1,0,0,1,0,0.,0.,1.25,1.25,1.,1.,0.,-6.,-6.5,12.5,-6.,-6.5,      87P    119
0.,1.25,0.,0.,0.;                                                     87P    120
126,2,2,0,0,0,0,1.5707963267949,1.5707963267949,1.5707963267949,      89P    121
3.14159265358979,3.14159265358979,3.14159265358979,1.,                89P    122
0.707106781186547,1.,12.5,-6.,-6.5,16.,-6.,-6.5,16.,-2.5,-6.5,        89P    123
1.5707963267949,3.14159265358979,0.,0.,0.;                            89P    124
126,1,1,0,0,1,0,0.,0.,0.5,0.5,1.,1.,16.,-2.5,-6.5,16.,2.5,-6.5,       91P    125
0.,0.5,0.,0.,0.;                                                      91P    126
126,2,2,0,0,0,0,1.5707963267949,1.5707963267949,1.5707963267949,      93P    127
3.14159265358979,3.14159265358979,3.14159265358979,1.,                93P    128
0.707106781186546,1.,16.,2.5,-6.5,16.,6.,-6.5,12.5,6.,-6.5,           93P    129
1.5707963267949,3.14159265358979,0.,0.,0.;                            93P    130
126,1,1,0,0,1,0,0.,0.,1.25,1.25,1.,1.,12.5,6.,-6.5,0.,6.,-6.5,        95P    131
0.,1.25,0.,0.,0.;                                                     95P    132
128,1,8,1,2,0,1,0,0,1,8.4135056133298,8.4135056133298,                97P    133
12.1149244905661,12.1149244905661,-3.14159265358979,                  97P    134
-3.14159265358979,-3.14159265358979,-1.5707963267949,                 97P    135
-1.5707963267949,0.,0.,1.5707963267949,1.5707963267949,               97P    136
3.14159265358979,3.14159265358979,3.14159265358979,1.,1.,             97P    137
0.707106781186548,0.707106781186548,1.,1.,0.707106781186548,          97P    138
0.707106781186548,1.,1.,0.707106781186548,0.707106781186548,1.,       97P    139
1.,0.707106781186548,0.707106781186548,1.,1.,0.,0.,1.621,6.,0.,       97P    140
1.621,0.,-1.621,1.621,6.,-1.621,1.621,0.,-1.621,0.,6.,-1.621,0.,      97P    141
0.,-1.621,-1.621,6.,-1.621,-1.621,0.,0.,-1.621,6.,0.,-1.621,0.,       97P    142
1.621,-1.621,6.,1.621,-1.621,0.,1.621,0.,6.,1.621,0.,0.,1.621,        97P    143
1.621,6.,1.621,1.621,0.,0.,1.621,6.,0.,1.621,8.4135056133298,         97P    144
12.1149244905661,-3.14159265358979,3.14159265358979;                  97P    145
128,1,8,1,2,0,1,0,0,1,-0.117851130197758,-0.117851130197758,          99P    146
0.752453104293572,0.752453104293572,-3.14159265358979,                99P    147
-3.14159265358979,-3.14159265358979,-1.5707963267949,                 99P    148
-1.5707963267949,0.,0.,1.5707963267949,1.5707963267949,               99P    149
3.14159265358979,3.14159265358979,3.14159265358979,1.,1.,             99P    150
0.707106781186548,0.707106781186548,1.,1.,0.707106781186548,          99P    151
0.707106781186548,1.,1.,0.707106781186548,0.707106781186548,1.,       99P    152
1.,0.707106781186548,0.707106781186548,1.,1.,2.30761184457488,        99P    153
-9.19238815542512,0.,6.,-5.5,0.,2.30761184457488,                     99P    154
-9.19238815542512,9.19238815542512,6.,-5.5,5.5,2.30761184457488,      99P    155
0.,9.19238815542512,6.,0.,5.5,2.30761184457488,9.19238815542512,      99P    156
9.19238815542512,6.,5.5,5.5,2.30761184457488,9.19238815542512,        99P    157
0.,6.,5.5,0.,2.30761184457488,9.19238815542512,                       99P    158
-9.19238815542512,6.,5.5,-5.5,2.30761184457488,0.,                    99P    159
-9.19238815542512,6.,0.,-5.5,2.30761184457488,-9.19238815542512,      99P    160
-9.19238815542512,6.,-5.5,-5.5,2.30761184457488,                      99P    161
-9.19238815542512,0.,6.,-5.5,0.,-0.117851130197758,                   99P    162
0.752453104293572,-3.14159265358979,3.14159265358979;                 99P    163
128,1,1,1,1,0,0,1,0,0,-13.001,-13.001,0.000999999999997669,          101P    164
0.000999999999997669,-0.001,-0.001,5.00100000000146,                 101P    165
5.00100000000146,1.,1.,1.,1.,-0.001,-6.5,6.501,-0.001,-6.5,          101P    166
-6.501,5.00100000000146,-6.5,6.501,5.00100000000146,-6.5,-6.501,     101P    167
-13.001,0.000999999999997669,-0.001,5.00100000000146;                101P    168
128,1,1,1,1,0,0,1,0,0,-0.001,-0.001,6.90480592224986,                103P    169
6.90480592224986,-0.001,-0.001,13.001,13.001,1.,1.,1.,1.,-0.001,     103P    170
-6.501,6.5,6.90480592224986,-6.501,6.5,-0.001,6.501,6.5,             103P    171
6.90480592224986,6.501,6.5,-0.001,6.90480592224986,-0.001,           103P    172
13.001;                                                              103P    173
128,1,1,1,1,0,0,1,0,0,-13.001,-13.001,0.000999999999997669,          105P    174
0.000999999999997669,-0.001,-0.001,6.90480592224986,                 105P    175
6.90480592224986,1.,1.,1.,1.,-0.001,6.5,-6.501,-0.001,6.5,6.501,     105P    176
6.90480592224986,6.5,-6.501,6.90480592224986,6.5,6.501,-13.001,      105P    177
0.000999999999997669,-0.001,6.90480592224986;                        105P    178
128,1,1,1,1,0,0,1,0,0,-6.90480592224986,-6.90480592224986,           107P    179
0.00100000000000033,0.00100000000000033,-13.001,-13.001,0.001,       107P    180
0.001,1.,1.,1.,1.,6.90480592224986,-6.501,-6.5,-0.001,-6.501,        107P    181
-6.5,6.90480592224986,6.501,-6.5,-0.00099999999999989,6.501,         107P    182
-6.5,-6.90480592224986,0.00100000000000033,-13.001,0.001;            107P    183
128,1,1,1,1,0,0,1,0,0,-5.501,-5.501,5.501,5.501,-5.501,-5.501,       109P    184
5.501,5.501,1.,1.,1.,1.,6.,-5.501,5.501,6.,-5.501,-5.501,6.,         109P    185
5.501,5.501,6.,5.501,-5.501,-5.501,5.501,-5.501,5.501;               109P    186
128,1,1,1,1,0,0,1,0,0,-6.501,-6.501,6.501,6.501,-6.501,-6.501,       111P    187
6.501,6.501,1.,1.,1.,1.,0.,-6.501,-6.501,0.,-6.501,6.501,0.,         111P    188
6.501,-6.501,0.,6.501,6.501,-6.501,6.501,-6.501,6.501;               111P    189
128,1,1,1,1,0,0,1,0,0,-7.5048508746957,-7.5048508746957,             113P    190
8.4971491253043,8.4971491253043,-6.001,-6.001,6.001,6.001,1.,1.,     113P    191
1.,1.,-0.001000000000001,-6.001,-6.5,16.001,-6.001,-6.5,             113P    192
-0.001000000000001,6.001,-6.5,16.001,6.001,-6.5,                     113P    193
-7.5048508746957,8.4971491253043,-6.001,6.001;                       113P    194
502,14,0.,-1.98515246141786D-16,1.621,6.,0.,1.621,6.,0.,-1.621,      115P    195
2.30761184457488,-6.5,-6.5,5.0000000000003,-6.4999999999997,         115P    196
1.76385222217553D-12,2.30761184457488,6.5,-6.5,2.30761184457488,     115P    197
6.5,6.5,2.30761184457488,-6.5,6.5,6.,-5.5,0.,6.,5.5,0.,0.,-6.5,      115P    198
6.5,0.,-6.5,-6.5,0.,6.5,6.5,0.,6.5,-6.5;                             115P    199
504,20,45,115,1,115,1,47,115,1,115,2,49,115,3,115,2,51,115,2,        117P    200
115,3,53,115,4,115,5,55,115,6,115,4,57,115,7,115,6,59,115,8,115,     117P    201
7,61,115,5,115,8,63,115,5,115,9,65,115,10,115,9,67,115,9,115,10,     117P    202
69,115,11,115,8,71,115,12,115,11,73,115,12,115,4,75,115,13,115,      117P    203
7,77,115,11,115,13,79,115,14,115,6,81,115,13,115,14,83,115,14,       117P    204
115,12;                                                              117P    205
406,1,7HBryła1;                                                     119P    206
406,1,4HSrf1;                                                        121P    207
406,2,0,10HZłożony1;                                               123P    208
314,74.9019607843137,74.9019607843137,74.9019607843137,;             125P    209
314,50.1960784313725,50.1960784313725,50.1960784313725,;             127P    210
314,55.6862745098039,55.6862745098039,58.8235294117647,;             129P    211
S      1G      3D    130P    211                                        T      1
