                                                                        S      1
,,,6H210402,22HAutodesk Inventor 2021,7Hunknown,32,38,7,99,15,,1.,2,2HMMG      1
,1,0.08,15H20230120.070231,0.01,10000.,9HKrajewski,,11,0,15H20140103.000G      2
000;                                                                    G      3
     143       1                       1                        00000000D      1
     143       0    -127       1       0                               0D      2
     141       2                                                00010000D      3
     141       0               1       0                               0D      4
     186       3                                                00000000D      5
     186            -125       1       0                               0D      6
     514       4                                                00010000D      7
     514                       1       1                               0D      8
     510       5                                                00010000D      9
     510            -125       1       1                               0D     10
     510       6                                                00010000D     11
     510            -125       1       1                               0D     12
     510       7                                                00010000D     13
     510            -125       1       1                               0D     14
     510       8                                                00010000D     15
     510            -125       1       1                               0D     16
     510       9                                                00010000D     17
     510            -125       1       1                               0D     18
     510      10                                                00010000D     19
     510            -125       1       1                               0D     20
     510      11                                                00010000D     21
     510            -125       1       1                               0D     22
     510      12                                                00010000D     23
     510            -125       1       1                               0D     24
     508      13                                                00010000D     25
     508                       2       1                               0D     26
     508      15                                                00010000D     27
     508                       2       1                               0D     28
     508      17                                                00010000D     29
     508                       2       1                               0D     30
     508      19                                                00010000D     31
     508                       1       1                               0D     32
     508      20                                                00010000D     33
     508                       1       1                               0D     34
     508      21                                                00010000D     35
     508                       1       1                               0D     36
     508      22                                                00010000D     37
     508                       1       1                               0D     38
     508      23                                                00010000D     39
     508                       1       1                               0D     40
     508      24                                                00010000D     41
     508                       1       1                               0D     42
     508      25                                                00010000D     43
     508                       1       1                               0D     44
     126      26                                                00010000D     45
     126       0               5       0                               0D     46
     126      31                                                00010000D     47
     126       0               7       0                               0D     48
     126      38                                                00010000D     49
     126       0               3       0                               0D     50
     126      41                                                00010000D     51
     126       0              10       0                               0D     52
     126      51                                                00010000D     53
     126       0               5       0                               0D     54
     126      56                                                00010000D     55
     126       0               7       0                               0D     56
     126      63                                                00010000D     57
     126       0               4       0                               0D     58
     126      67                                                00010000D     59
     126       0               6       0                               0D     60
     126      73                                                00010000D     61
     126       0               6       0                               0D     62
     126      79                                                00010000D     63
     126       0               6       0                               0D     64
     126      85                                                00010000D     65
     126       0               6       0                               0D     66
     126      91                                                00010000D     67
     126       0               6       0                               0D     68
     126      97                                                00010000D     69
     126       0               3       0                               0D     70
     126     100                                                00010000D     71
     126       0               2       0                               0D     72
     126     102                                                00010000D     73
     126       0               3       0                               0D     74
     126     105                                                00010000D     75
     126       0               3       0                               0D     76
     126     108                                                00010000D     77
     126       0               2       0                               0D     78
     126     110                                                00010000D     79
     126       0               3       0                               0D     80
     126     113                                                00010000D     81
     126       0               2       0                               0D     82
     126     115                                                00010000D     83
     126       0               2       0                               0D     84
     126     117                                                00010000D     85
     126       0               2       0                               0D     86
     126     119                                                00010000D     87
     126       0               2       0                               0D     88
     126     121                                                00010000D     89
     126       0               4       0                               0D     90
     126     125                                                00010000D     91
     126       0               3       0                               0D     92
     126     128                                                00010000D     93
     126       0               4       0                               0D     94
     126     132                                                00010000D     95
     126       0               2       0                               0D     96
     128     134                                                00010000D     97
     128       0    -125      13       0                               0D     98
     128     147                                                00010000D     99
     128       0    -125      18       0                               0D    100
     128     165                                                00010000D    101
     128       0    -125       5       0                               0D    102
     128     170                                                00010000D    103
     128       0    -125       5       0                               0D    104
     128     175                                                00010000D    105
     128       0    -125       5       0                               0D    106
     128     180                                                00010000D    107
     128       0    -125       4       0                               0D    108
     128     184                                                00010000D    109
     128       0    -125       3       0                               0D    110
     128     187                                                00010000D    111
     128       0    -125       3       0                               0D    112
     128     190                                                00010000D    113
     128       0               4       0                               0D    114
     502     194                                                00010000D    115
     502                       5       1                               0D    116
     504     199                                                00010001D    117
     504                       6       1                               0D    118
     406     205                                                00000000D    119
     406                       1      15                               0D    120
     406     206                                                00000000D    121
     406                       1      15                               0D    122
     406     207                       1                        00000000D    123
     406            -127       1       3                               0D    124
     314     208                                                00000200D    125
     314                       1       0                               0D    126
     314     209                                                00000200D    127
     314                       1       0                               0D    128
143,0,113,1,3,0,1,121;                                                 1P      1
141,0,1,113,6,85,1,0,87,1,0,89,1,0,91,1,0,93,1,0,95,1,0;               3P      2
186,7,1,0,0,1,119;                                                     5P      3
514,8,9,1,11,1,13,1,15,1,17,1,19,1,21,1,23,1;                          7P      4
510,97,1,1,25;                                                         9P      5
510,99,1,1,27;                                                        11P      6
510,101,1,1,29;                                                       13P      7
510,103,1,1,31;                                                       15P      8
510,105,1,1,33;                                                       17P      9
510,107,1,1,35;                                                       19P     10
510,109,2,1,37,39;                                                    21P     11
510,111,2,1,41,43;                                                    23P     12
508,5,0,117,1,0,0,0,117,2,0,0,0,117,3,1,0,0,117,4,0,0,0,117,3,0,      25P     13
0;                                                                    25P     14
508,9,0,117,5,0,0,0,117,6,0,0,0,117,7,1,0,0,117,8,0,0,0,117,9,0,      27P     15
0,0,117,10,0,0,0,117,11,0,0,0,117,12,0,0,0,117,7,0,0;                 27P     16
508,5,0,117,8,1,0,0,117,12,1,0,0,117,13,0,0,0,117,14,0,0,0,117,       29P     17
15,1,0;                                                               29P     18
508,4,0,117,11,1,0,0,117,16,0,0,0,117,17,0,0,0,117,13,1,0;            31P     19
508,4,0,117,10,1,0,0,117,18,0,0,0,117,19,0,0,0,117,16,1,0;            33P     20
508,4,0,117,9,1,0,0,117,15,0,0,0,117,20,0,0,0,117,18,1,0;             35P     21
508,2,0,117,5,1,0,0,117,6,1,0;                                        37P     22
508,2,0,117,1,1,0,0,117,2,1,0;                                        39P     23
508,4,0,117,17,1,0,0,117,19,1,0,0,117,20,1,0,0,117,14,1,0;            41P     24
508,1,0,117,4,1,0;                                                    43P     25
126,4,2,0,0,0,0,0.,0.,0.,1.5707963267949,1.5707963267949,             45P     26
3.14159265358979,3.14159265358979,3.14159265358979,1.,                45P     27
0.707106781186548,1.,0.707106781186548,1.,6.,0.,-1.621,6.,            45P     28
-1.621,-1.621,6.,-1.621,-9.9257623070893D-17,6.,-1.621,1.621,6.,      45P     29
-1.98515246141786D-16,1.621,0.,3.14159265358979,0.,0.,0.;             45P     30
126,4,2,0,0,0,0,3.14159265358979,3.14159265358979,                    47P     31
3.14159265358979,4.71238898038469,4.71238898038469,                   47P     32
6.28318530717959,6.28318530717959,6.28318530717959,1.,                47P     33
0.707106781186548,1.,0.707106781186547,1.,6.,                         47P     34
-1.98515246141786D-16,1.621,6.,1.621,1.621,6.,1.621,                  47P     35
2.97772869212679D-16,6.,1.621,-1.621,6.,3.97030492283572D-16,         47P     36
-1.621,3.14159265358979,6.28318530717959,0.,0.,0.;                    47P     37
126,1,1,0,0,1,0,-12.1149244905661,-12.1149244905661,                  49P     38
-8.4135056133298,-8.4135056133298,1.,1.,6.,0.,1.621,0.,0.,1.621,      49P     39
-12.1149244905661,-8.4135056133298,0.,0.,0.;                          49P     40
126,8,2,0,1,0,0,-3.14159265358979,-3.14159265358979,                  51P     41
-3.14159265358979,-1.5707963267949,-1.5707963267949,0.,0.,            51P     42
1.5707963267949,1.5707963267949,3.14159265358979,                     51P     43
3.14159265358979,3.14159265358979,1.,0.707106781186548,1.,            51P     44
0.707106781186548,1.,0.707106781186548,1.,0.707106781186548,1.,       51P     45
0.,-1.98515246141786D-16,1.621,0.,-1.621,1.621,0.,-1.621,             51P     46
-9.9257623070893D-17,0.,-1.621,-1.621,0.,0.,-1.621,0.,1.621,          51P     47
-1.621,0.,1.621,-9.9257623070893D-17,0.,1.621,1.621,0.,               51P     48
1.98515246141786D-16,1.621,-3.14159265358979,3.14159265358979,        51P     49
0.,0.,0.;                                                             51P     50
126,4,2,0,0,0,0,0.,0.,0.,1.5707963267949,1.5707963267949,             53P     51
3.14159265358979,3.14159265358979,3.14159265358979,1.,                53P     52
0.707106781186548,1.,0.707106781186548,1.,6.,5.5,0.,6.,5.5,5.5,       53P     53
6.,3.36777869765522D-16,5.5,6.,-5.5,5.5,6.,-5.5,                      53P     54
6.73555739531044D-16,0.,3.14159265358979,0.,0.,0.;                    53P     55
126,4,2,0,0,0,0,3.14159265358979,3.14159265358979,                    55P     56
3.14159265358979,4.71238898038469,4.71238898038469,                   55P     57
6.28318530717959,6.28318530717959,6.28318530717959,1.,                55P     58
0.707106781186548,1.,0.707106781186548,1.,6.,-5.5,                    55P     59
6.73555739531044D-16,6.,-5.5,-5.5,6.,-1.01033360929657D-15,-5.5,      55P     60
6.,5.5,-5.5,6.,5.5,-1.34711147906209D-15,3.14159265358979,            55P     61
6.28318530717959,0.,0.,0.;                                            55P     62
126,1,1,0,0,1,0,-0.117851130197758,-0.117851130197758,                57P     63
0.117851130200497,0.117851130200497,1.,1.,6.,-5.5,0.,                 57P     64
4.99999999998242,-6.50000000000566,1.7634782523146D-12,               57P     65
-0.117851130197758,0.117851130200497,0.,0.,0.;                        57P     66
126,2,2,0,0,0,0,0.0587433032615018,0.0587433032615018,                59P     67
0.0587433032615018,0.796084166400399,0.796084166400399,               59P     68
0.796084166400399,1.03553390593274,1.2499999999988,1.25,              59P     69
2.30761184457488,-6.5,-6.5,4.99999999996988,-6.5,                     59P     70
-2.69238815541789,4.99999999997616,-6.5,3.52695650462919D-12,         59P     71
0.0587433032615018,0.796084166400399,0.,0.,0.;                        59P     72
126,2,2,0,0,0,0,0.0587433032615019,0.0587433032615019,                61P     73
0.0587433032615019,1.53342502954415,1.53342502954415,                 61P     74
1.53342502954415,1.03553390593274,1.46446609406627,                   61P     75
1.03553390593472,2.30761184457488,6.5,-6.5,6.90380592224986,          61P     76
-3.18933768284069D-11,-6.5,2.30761184457488,-6.5,-6.5,                61P     77
0.0587433032615019,1.53342502954415,0.,0.,0.;                         61P     78
126,2,2,0,0,0,0,0.0587433032615016,0.0587433032615016,                63P     79
0.0587433032615016,1.53342502954415,1.53342502954415,                 63P     80
1.53342502954415,1.03553390593274,1.46446609406627,                   63P     81
1.03553390593472,2.30761184457488,6.5,6.5,6.90380592224986,6.5,       63P     82
-3.18944870514315D-11,2.30761184457488,6.5,-6.5,                      63P     83
0.0587433032615016,1.53342502954415,0.,0.,0.;                         63P     84
126,2,2,0,0,0,0,0.0587433032615017,0.0587433032615017,                65P     85
0.0587433032615017,1.53342502954415,1.53342502954415,                 65P     86
1.53342502954415,1.03553390593274,1.46446609406627,                   65P     87
1.03553390593472,2.30761184457488,-6.5,6.5,6.90380592224986,          65P     88
3.18933768284069D-11,6.5,2.30761184457488,6.5,6.5,                    65P     89
0.0587433032615017,1.53342502954415,0.,0.,0.;                         65P     90
126,2,2,0,0,0,0,0.796084166400399,0.796084166400399,                  67P     91
0.796084166400399,1.53342502954415,1.53342502954415,                  67P     92
1.53342502954415,1.25,1.2500000000012,1.03553390593472,               67P     93
4.99999999997616,-6.5,3.52695650462919D-12,4.99999999998244,          67P     94
-6.5,2.6923881554375,2.30761184457488,-6.5,6.5,                       67P     95
0.796084166400399,1.53342502954415,0.,0.,0.;                          67P     96
126,1,1,0,0,1,0,0.,0.,0.230761184457488,0.230761184457488,1.,1.,      69P     97
0.,-6.5,6.5,2.30761184457488,-6.5,6.5,0.,0.230761184457488,0.,        69P     98
0.,0.;                                                                69P     99
126,1,1,0,0,1,0,0.,0.,1.3,1.3,1.,1.,0.,-6.5,-6.5,0.,-6.5,6.5,0.,      71P    100
1.3,0.,0.,0.;                                                         71P    101
126,1,1,0,0,1,0,0.,0.,0.230761184457488,0.230761184457488,1.,1.,      73P    102
0.,-6.5,-6.5,2.30761184457488,-6.5,-6.5,0.,0.230761184457488,0.,      73P    103
0.,0.;                                                                73P    104
126,1,1,0,0,1,0,0.,0.,0.230761184457488,0.230761184457488,1.,1.,      75P    105
0.,6.5,6.5,2.30761184457488,6.5,6.5,0.,0.230761184457488,0.,0.,       75P    106
0.;                                                                   75P    107
126,1,1,0,0,1,0,0.,0.,1.3,1.3,1.,1.,0.,-6.5,6.5,0.,6.5,6.5,0.,        77P    108
1.3,0.,0.,0.;                                                         77P    109
126,1,1,0,0,1,0,0.,0.,0.230761184457488,0.230761184457488,1.,1.,      79P    110
0.,6.5,-6.5,2.30761184457488,6.5,-6.5,0.,0.230761184457488,0.,        79P    111
0.,0.;                                                                79P    112
126,1,1,0,0,1,0,0.,0.,1.3,1.3,1.,1.,0.,6.5,6.5,0.,6.5,-6.5,0.,        81P    113
1.3,0.,0.,0.;                                                         81P    114
126,1,1,0,0,1,0,0.,0.,1.3,1.3,1.,1.,0.,6.5,-6.5,0.,-6.5,-6.5,0.,      83P    115
1.3,0.,0.,0.;                                                         83P    116
126,1,1,0,0,1,0,0.05,0.05,1.25,1.25,1.,1.,0.,6.,-6.5,0.,-6.,          85P    117
-6.5,0.05,1.25,0.,0.,0.;                                              85P    118
126,1,1,0,0,1,0,0.,0.,1.25,1.25,1.,1.,0.,-6.,-6.5,12.5,-6.,-6.5,      87P    119
0.,1.25,0.,0.,0.;                                                     87P    120
126,2,2,0,0,0,0,1.5707963267949,1.5707963267949,1.5707963267949,      89P    121
3.14159265358979,3.14159265358979,3.14159265358979,1.,                89P    122
0.707106781186546,1.,12.5,-6.,-6.5,16.,-6.,-6.5,16.,-2.5,-6.5,        89P    123
1.5707963267949,3.14159265358979,0.,0.,0.;                            89P    124
126,1,1,0,0,1,0,5.55111512312578D-17,5.55111512312578D-17,0.5,        91P    125
0.5,1.,1.,16.,-2.5,-6.5,16.,2.5,-6.5,5.55111512312578D-17,0.5,        91P    126
0.,0.,0.;                                                             91P    127
126,2,2,0,0,0,0,1.5707963267949,1.5707963267949,1.5707963267949,      93P    128
3.14159265358979,3.14159265358979,3.14159265358979,1.,                93P    129
0.707106781186547,1.,16.,2.5,-6.5,16.,6.,-6.5,12.5,6.,-6.5,           93P    130
1.5707963267949,3.14159265358979,0.,0.,0.;                            93P    131
126,1,1,0,0,1,0,0.,0.,1.25,1.25,1.,1.,12.5,6.,-6.5,0.,6.,-6.5,        95P    132
0.,1.25,0.,0.,0.;                                                     95P    133
128,1,8,1,2,0,1,0,0,1,-12.1149244905661,-12.1149244905661,            97P    134
-8.4135056133298,-8.4135056133298,-3.14159265358979,                  97P    135
-3.14159265358979,-3.14159265358979,-1.5707963267949,                 97P    136
-1.5707963267949,0.,0.,1.5707963267949,1.5707963267949,               97P    137
3.14159265358979,3.14159265358979,3.14159265358979,1.,1.,             97P    138
0.707106781186548,0.707106781186548,1.,1.,0.707106781186548,          97P    139
0.707106781186548,1.,1.,0.707106781186548,0.707106781186548,1.,       97P    140
1.,0.707106781186548,0.707106781186548,1.,1.,0.,0.,1.621,6.,0.,       97P    141
1.621,0.,-1.621,1.621,6.,-1.621,1.621,0.,-1.621,0.,6.,-1.621,0.,      97P    142
0.,-1.621,-1.621,6.,-1.621,-1.621,0.,0.,-1.621,6.,0.,-1.621,0.,       97P    143
1.621,-1.621,6.,1.621,-1.621,0.,1.621,0.,6.,1.621,0.,0.,1.621,        97P    144
1.621,6.,1.621,1.621,0.,0.,1.621,6.,0.,1.621,-12.1149244905661,       97P    145
-8.4135056133298,-3.14159265358979,3.14159265358979;                  97P    146
128,1,8,1,2,0,1,0,0,1,-0.117851130197758,-0.117851130197758,          99P    147
0.752453104293572,0.752453104293572,-3.14159265358979,                99P    148
-3.14159265358979,-3.14159265358979,-1.5707963267949,                 99P    149
-1.5707963267949,0.,0.,1.5707963267949,1.5707963267949,               99P    150
3.14159265358979,3.14159265358979,3.14159265358979,1.,1.,             99P    151
0.707106781186548,0.707106781186548,1.,1.,0.707106781186548,          99P    152
0.707106781186548,1.,1.,0.707106781186548,0.707106781186548,1.,       99P    153
1.,0.707106781186548,0.707106781186548,1.,1.,2.30761184457488,        99P    154
-9.19238815542512,0.,6.,-5.5,0.,2.30761184457488,                     99P    155
-9.19238815542512,9.19238815542512,6.,-5.5,5.5,2.30761184457488,      99P    156
0.,9.19238815542512,6.,0.,5.5,2.30761184457488,9.19238815542512,      99P    157
9.19238815542512,6.,5.5,5.5,2.30761184457488,9.19238815542512,        99P    158
0.,6.,5.5,0.,2.30761184457488,9.19238815542512,                       99P    159
-9.19238815542512,6.,5.5,-5.5,2.30761184457488,0.,                    99P    160
-9.19238815542512,6.,0.,-5.5,2.30761184457488,-9.19238815542512,      99P    161
-9.19238815542512,6.,-5.5,-5.5,2.30761184457488,                      99P    162
-9.19238815542512,0.,6.,-5.5,0.,-0.117851130197758,                   99P    163
0.752453104293572,-3.14159265358979,3.14159265358979;                 99P    164
128,1,1,1,1,0,0,1,0,0,-1.301,-1.301,0.00099999999999989,             101P    165
0.00099999999999989,-0.001,-0.001,0.500999999998244,                 101P    166
0.500999999998244,1.,1.,1.,1.,-0.01,-6.5,6.51,-0.01,-6.5,-6.51,      101P    167
5.00999999998244,-6.5,6.51,5.00999999998244,-6.5,-6.51,-1.301,       101P    168
0.00099999999999989,-0.001,0.500999999998244;                        101P    169
128,1,1,1,1,0,0,1,0,0,-0.001,-0.001,0.691380592224986,               103P    170
0.691380592224986,-0.00100000000000011,-0.00100000000000011,         103P    171
1.301,1.301,1.,1.,1.,1.,-0.01,-6.51,6.5,6.91380592224986,-6.51,      103P    172
6.5,-0.01,6.51,6.5,6.91380592224986,6.51,6.5,-0.001,                 103P    173
0.691380592224986,-0.00100000000000011,1.301;                        103P    174
128,1,1,1,1,0,0,1,0,0,-1.301,-1.301,0.00100000000000011,             105P    175
0.00100000000000011,-0.001,-0.001,0.691380592224986,                 105P    176
0.691380592224986,1.,1.,1.,1.,-0.01,6.5,-6.51,-0.01,6.5,6.51,        105P    177
6.91380592224986,6.5,-6.51,6.91380592224986,6.5,6.51,-1.301,         105P    178
0.00100000000000011,-0.001,0.691380592224986;                        105P    179
128,1,1,1,1,0,0,1,0,0,-0.691380592224986,-0.691380592224986,         107P    180
0.001,0.001,-1.301,-1.301,0.001,0.001,1.,1.,1.,1.,                   107P    181
6.91380592224986,-6.51,-6.5,-0.01,-6.51,-6.5,6.91380592224986,       107P    182
6.51,-6.5,-0.01,6.51,-6.5,-0.691380592224986,0.001,-1.301,0.001;     107P    183
128,1,1,1,1,0,0,1,0,0,-0.551,-0.551,0.551,0.551,-0.551,-0.551,       109P    184
0.551,0.551,1.,1.,1.,1.,6.,-5.51,5.51,6.,-5.51,-5.51,6.,5.51,        109P    185
5.51,6.,5.51,-5.51,-0.551,0.551,-0.551,0.551;                        109P    186
128,1,1,1,1,0,0,1,0,0,-0.651,-0.651,0.651,0.651,-0.651,-0.651,       111P    187
0.651,0.651,1.,1.,1.,1.,0.,-6.51,-6.51,0.,-6.51,6.51,0.,6.51,        111P    188
-6.51,0.,6.51,6.51,-0.651,0.651,-0.651,0.651;                        111P    189
128,1,1,1,1,0,0,1,0,0,-0.75138508746957,-0.75138508746957,           113P    190
0.85061491253043,0.85061491253043,-0.601,-0.601,0.601,0.601,1.,      113P    191
1.,1.,1.,-0.01,-6.01,-6.5,16.01,-6.01,-6.5,-0.01,6.01,-6.5,          113P    192
16.01,6.01,-6.5,-0.75138508746957,0.85061491253043,-0.601,0.601;     113P    193
502,14,6.,0.,-1.621,6.,0.,1.621,0.,-1.98515246141786D-16,1.621,      115P    194
6.,5.5,0.,6.,-5.5,0.,4.99999999998242,-6.50000000000566,             115P    195
1.7634782523146D-12,2.30761184457488,-6.5,-6.5,2.30761184457488,     115P    196
6.5,-6.5,2.30761184457488,6.5,6.5,2.30761184457488,-6.5,6.5,0.,      115P    197
-6.5,6.5,0.,-6.5,-6.5,0.,6.5,6.5,0.,6.5,-6.5;                        115P    198
504,20,45,115,1,115,2,47,115,2,115,1,49,115,2,115,3,51,115,3,        117P    199
115,3,53,115,4,115,5,55,115,5,115,4,57,115,5,115,6,59,115,7,115,     117P    200
6,61,115,8,115,7,63,115,9,115,8,65,115,10,115,9,67,115,6,115,10,     117P    201
69,115,11,115,10,71,115,12,115,11,73,115,12,115,7,75,115,13,115,     117P    202
9,77,115,11,115,13,79,115,14,115,8,81,115,13,115,14,83,115,14,       117P    203
115,12;                                                              117P    204
406,1,6HSolid1;                                                      119P    205
406,1,4HSrf1;                                                        121P    206
406,2,0,20HHraniční záplata1;                                     123P    207
314,50.1960784313725,50.1960784313725,50.1960784313725,;             125P    208
314,55.6862745098039,55.6862745098039,58.8235294117647,;             127P    209
S      1G      3D    128P    209                                        T      1
